Oops, an error
Loading. Please wait.

Stay With Me chords

325 views 51 this week
no commentswrite comment
1 2 3 4 5
3 more votes to show rating
add to favorites
×
Save as Personal and add changes to this tab that will be seen only by you. Learn more ›
×
You can save this tab as Personal to edit and correct it or add notes. All changes will be seen only by you. Learn more »
launch autoscroll
font size
0
reset
transpose
0
reset
simplify chords
display chords
guitar tuner
edit
Autoscroll
slow
fast
+/-
esc
set tempo
stop
About this tab version
This tab shows the chords along with the tabs of the guitar solo. Was this info helpful? Yes No
Strumming
There is no strumming pattern for this song yet. and get +5 IQ
 D#maj7  Dm7 Fmaj7  Cmaj7 Bm7 Cmaj7 Em7 Gmaj7
e|-6---|--5-|--8--|--3--|--2-|--3-|--7-|--10-|
B|-8---|--6-|--10-|--5--|--3-|--3-|--8-|--12-|
G|-7---|--5-|--9--|--4--|--2-|--4-|--7-|--11-|
D|-8---|--7-|--10-|--5--|--4-|--5-|--9-|--12-|
A|-6---|--5-|--8--|--3--|--2-|--3-|--7-|--10-|
E|-x---|--x-|--x--|--x--|--x-|--x-|--x-|---x-|

[Intro]

D#maj7 Dm7 Fmaj7 Cmaj7

(Guitar 2)
e|----------------------|------------------------|
B|-8-10-13-10-13--10-13-|-8-10-13-10-13--13-10-8-|
G|----------------------|------------------------| (2x)
D|----------------------|------------------------|
A|----------------------|------------------------|
E|----------------------|------------------------|

[Verse 1]
D#maj7                    Dm7
      You know what would be good?
Fmaj7                 Cmaj7
      If you come with me tonight
D#maj7                Dm7
      We can have some fun
          Fmaj7        Cmaj7
Up until the sun, comes up

D#maj7               Dm7
       We gonna drink this bottle
Fmaj7                Cmaj7
     Then imma put it on you
D#maj7               Dm7
     Looking in your eyes
                     Fmaj7
Feeling up your thighs
               Cmaj7
I'm hypnotized baby


[Chorus]
                    D#maj7   Dm7
So would you like to stay with me
                    Fmaj7    Cmaj7
So would you like to stay with me
                    D#maj7   Dm7     Fmaj7    Cmaj7
So would you like to stay with me tonight
                    D#maj7   Dm7
So would you like to stay with me
                    Fmaj7    Cmaj7
So would you like to stay with me
                    D#maj7   Dm7     Fmaj7    Cmaj7
So would you like to stay with me tonight

 D#maj7   Dm7   Fmaj7    Cmaj7
 D#maj7   Dm7   Fmaj7    Cmaj7


[Verse 2]
D#maj7            Dm7
    I'll kiss you when you wake up
Fmaj7           Cmaj7
    I make your bed and breakfast baby
D#maj7            Dm7               Fmaj7                 Cmaj7
    I'll be the best you'll ever had I'll never let you down
D#maj7            Dm7
     And I will do anything to keep you smiling
        Fmaj7                  Cmaj7
Let the lightning strike me down if i'd be lying
        D#maj7            Dm7
And I know that it's too much right now to say
          Fmaj7         Cmaj7
But i'll be saying it anyway


[Chorus]
                    D#maj7   Dm7
So would you like to stay with me
                    Fmaj7    Cmaj7
So would you like to stay with me
                    D#maj7   Dm7     Fmaj7    Cmaj7
So would you like to stay with me tonight
                    D#maj7   Dm7
So would you like to stay with me
                    Fmaj7    Cmaj7
So would you like to stay with me
                    D#maj7   Dm7     Fmaj7    Cmaj7
So would you like to stay with me tonight

Bm7              Cmaj7
   But I won't force it baby
       Bm7                   Cmaj7
I will let my guard down sugar
        Bm7                          Cmaj7
I will lay my cards now in front of you
       Bm7            Cmaj7
And all im saying is true

Fmaj7  Em7  Gmaj7  D#maj7
Fmaj7  Em7  Gmaj7  D#maj7


(Guitar 2)
e|--------------------12-|----------12-12/14----12----10-|
B|-10-12-15-12-15--12----|-10-12-15----------15----12----|
G|-----------------------|-------------------------------|
D|-----------------------|-------------------------------|
A|-----------------------|-------------------------------|
E|-----------------------|-------------------------------|

e|----------------------------------|-----------------|
B|-10-10-12-10-12b13--12/13--12--10-|-8-10-7-6-8-5-3\-|
G|----------------------------------|-----------------|
D|----------------------------------|-----------------|
A|----------------------------------|-----------------|
E|----------------------------------|-----------------|


[Chorus]
                   Fmaj7    Em7
So don't you wanna stay with me
                   Gmaj7    D#maj7
So don't you wanna stay with me
                   Fmaj7    Em7     Gmaj7  D#maj7
So don't you wanna stay with me tonight

                   Fmaj7    Em7
So don't you wanna stay with me
                   Gmaj7    D#maj7
So don't you wanna stay with me
                   Fmaj7    Em7     Gmaj7  D#maj7
So don't you wanna stay with me tonight

[Outro]

Fmaj7    Em7  Gmaj7  D#maj7
Fmaj7    Em7  Gmaj7  D#maj7



***********************************

| /   Slide-up
| \   Slide-down
| b   Bend

***********************************

            
            
Suggest correction
Creating personal tab
Creating personal tab
You can edit any tab online and save it as your Personal.

You can edit, replace or remove any tab part or add personal notes – all changes will be seen only by you.

Personal tabs can be accessed anytime from any device, even offline.
Learn more »
Give kudos to tab author, rate the tab!
1 2 3 4 5
comments
print report bad tab
guest
You may want to rate the tab now too:
select rating
Wanna post a correction for this tab? Suggest correction