Oops, an error
Loading. Please wait.

En Cada Paso Tab

19 views 1 this week
no commentswrite comment
1 2 3 4 5
3 more votes to show rating
add to favorites
launch autoscroll
font size
0
reset
how to read this tab
guitar tuner
×
Best way to learn
"En Cada Paso"
Autoscroll
slow
fast
+/-
esc
set tempo
stop
¡¿Que Onda Muchá?!
Esta es mi primera transcripción.
Cualquier duda, crítica, whatever...
Envíenmela a 
Pilas (Y)

INTRO.

E|--------------------------------------------|
B|----3----------3---------------0------------|
G|--2---2------2---2--------2-------2---------|
D|0----------0-----------0-----0------0-------|
A|--------------------------------------------|
E|--------------------3-----------------------|

Xxxxxxxxxxxxxxxxx ESTO POR 2 XXXXXXXXXXXXXXXXXXXXXXXX
LA CANCION SE TOCA COMO EN LA INTRO

VERSO

E|--------------------------------------------|
B|----3----------3---------------0------------|
G|--2---2------2---2--------2-------2---------|
D|0----------0-----------0-----0------0-------|
A|--------------------------------------------|
E|--------------------3-----------------------|  ( 2 VECES )

Pasan tantas cosas por mi mente que no puedo comprender tan fácil

E|--------------------------------------------|
B|----3----------3---------------0------------|
G|--2---2------2---2--------2-------2---------|
D|0----------0-----------0-----0------0-------|
A|--------------------------------------------|
E|--------------------3-----------------------|  ( 2 VECES )

Situaciones que me hacen crecer y aunque me puedan doler me llevan
a otro nivel

CORO

     A     G          A                A2          A          G
Lo Único que quiero saber es cuantas cosas más tienen que suceder
 A                 A2
para que yo tenga que entender

CORO

D   G   A         D          G
So--lo  se si mis pasos son firmes
  A
consante caminare.
D  G  A      G
Pa-sa-re las pruebas que vengan
      A
los problemas que sigan
   G                  A
y ahora solo quiero permanecer
    D  G  D   G        D-G-A
en ca--da pa--so       q u e    YO DEEEE.

E|--------------------------------------------|
B|----3----------3---------------0------------|
G|--2---2------2---2--------2-------2---------|
D|0----------0-----------0-----0------0-------|
A|--------------------------------------------|
E|--------------------3-----------------------|  ( 2 VECES )

VERSO.
E|--------------------------------------------|
B|----3----------3---------------0------------|
G|--2---2------2---2--------2-------2---------|
D|0----------0-----------0-----0------0-------|
A|--------------------------------------------|
E|--------------------3-----------------------|  ( 2 VECES )


pasan tantas cosas por mi mente que no puedo comprender que quiero
hacer

E|--------------------------------------------|
B|----3----------3---------------0------------|
G|--2---2------2---2--------2-------2---------|
D|0----------0-----------0-----0------0-------|
A|--------------------------------------------|
E|--------------------3-----------------------|  ( 2 VECES )

sigo caminando en esta vida no importando lo que pueda venir

E|--------------------------------------------|
B|----3----------3---------------0------------|
G|--2---2------2---2--------2-------2---------|
D|0----------0-----------0-----0------0-------|
A|--------------------------------------------|
E|--------------------3-----------------------|  ( 2 VECES )

PRE-CORO
  A      G       A            A2            A       G
tantas cosas y afanes que la vida nos trae tantos problemas que
    A           A2
a diario nos enfrentamos.

CORO
D   G   A         D          G
So--lo  se si mis pasos son firmes
  A
consante caminare.
D  G  A      G
Pa-sa-re las pruebas que vengan
      A
los problemas que sigan
   G                  A
y ahora solo quiero permanecer
    D  G  D   G        D-G-A
en ca--da pa--so       q u e     YO DE...

          //// D    -- G   ////

CORO
D   G   A         D          G
So--lo  se si mis pasos son firmes
  A
consante caminare.
D  G  A      G
Pa-sa-re las pruebas que vengan
      A
los problemas que sigan
   G                  A
y ahora solo quiero permanecer
    D  G  D   G        D-G-A
en ca--da pa--so       q u e


       D-G-D-G  D-G-A
///en cada paso  que   ///    yo de....


FIN.
        YO DEEEE I E IE EEEE.
E|--------------------------------------------|
B|----3----------3---------------0------------|
G|--2---2------2---2--------2-------2---------|
D|0----------0-----------0-----0------0-------|
A|--------------------------------------------|
E|--------------------3-----------------------| ( POR 3 )


E|-------------------------------------------------|
B|----3---------------3----------3-----------------|
G|--2---2----------2-------------2-----------------|
D|0-------------0----------------0-----------------|
A|-------------------------------------------------|
E|-------------------------------------------------|


NOTA:
  G : 320033.
  A2: 002200.
Suggest correction
Give kudos to tab author, rate the tab!
1 2 3 4 5
comments
print report bad tab
guest
You may want to rate the tab now too:
select rating
Wanna post a correction for this tab? Suggest correction