Oops, an error
Loading. Please wait.

Conquista Tab

version 1
version 1

Whole song

by Jerau
26 views 1 this week
no commentswrite comment
1 2 3 4 5
3 more votes to show rating
add to favorites
×
Save as Personal and add changes to this tab that will be seen only by you. Learn more ›
×
You can save this tab as Personal to edit and correct it or add notes. All changes will be seen only by you. Learn more »
save as personal
new!
launch autoscroll
font size
0
reset
how to read this tab
guitar tuner
Autoscroll
slow
fast
+/-
esc
set tempo
stop
Para toda la gente que le gusta la buena musica,
mis amigos deL grupo latin sound y a la  prom 2007 de la
sabiduria la mejor promoción del mundo.
meli tqf  mi correo blackydog911@


Acordes= G D C D

intro: 2 veces es un poco rapido y con ritmo suerte.

E|-7-7-8-10-8-7---------------------------------------------
B|----------------10-8-10------------------------------------
G|------------------------------------------------------------
D|------------------------------------------------------------
A|------------------------------------------------------------
E|------------------------------------------------------------


E|----7-8-7----------------7----------------------------------
B|-10--------10-8-7-8----10-10-8-7---8-7-7-7------------------
G|---------------------------------9--------------------------
D|------------------------------------------------------------
A|------------------------------------------------------------
E|------------------------------------------------------------


E|------------------------------------------------------------
B|-7-8-10-7-8-10----------------------------------------------
G|------------------------------------------------------------
D|------------------------------------------------------------
A|------------------------------------------------------------
E|------------------------------------------------------------

(X2)

G
Es una mujer divina
D
Ahí la ven cuando patina
C
Como saben que es costeña
D
Con su cola todos sueñan

G
Y no saben lo difícil
D
que es desearla entre mis brazos
C
y no saben lo terrible
D
que a ninguno le hace caso
C         D
HOOOOOOOOOAAAOOOOOOO
C                                 D
Pero ya llego el momento de confesarlo


CORO

G                         D
Hoy estoy dispuesta a conquistar
                     C
aquella chica que yo vi
                    D                          G
Un día que estaba trotando en la plazita iba cantando
                      D
Nos cruzamos las miradas
                C
dijimos cero palabras
                             D                            G D C D
hasta que me encontré a una amiga y dijo que nos presentaba


G                   D
La invitaba a manzanillo
                 C
y me decía "no cariño"
                         D
yo la invitaba a rumbear
                    G
me decía:"no se bailar

                         D
Fue un tormento todo el tiempo
                  C
pero se acabo conmigo
                     D
ese mito que otros tantos
                    G
no pudieron realizar


                       D
Cuando nos conocimos fuimos amigos
     C             D
hoy somos pareja vivimos felices
G                                  D
tengo que agradecerle toda la vida
                C                  D
a mi linda amiga , logró lo imposible

CORO

G                         D
Hoy estoy dispuesta a conquistar
                     C
aquella chica que yo vi
                    D                          G
Un día que estaba trotando en la plazita iba cantando
                      D
Nos cruzamos las miradas
                C
dijimos cero palabras
                             D                            G D C D
hasta que me encontré a una amiga y dijo que nos presentaba

G                     C
Conquistarla era mi sueño
                    G           D
y en las noches mi desvelo, de amor

CORO

G                         D
Hoy estoy dispuesta a conquistar
                     C
aquella chica que yo vi
                    D                          G
Un día que estaba trotando en la plazita iba cantando
                      D
Nos cruzamos las miradas
                C
dijimos cero palabras
                             D                            G D C D
hasta que me encontré a una amiga y dijo que nos presentaba

suertudos..
Suggest correction
Give kudos to tab author, rate the tab!
1 2 3 4 5
comments
print report bad tab
guest
Wanna post a correction for this tab? Suggest correction