Oops, an error
Loading. Please wait.

Conquista Tab

version 2
version 2

Whole song

13 views 1 this week
no commentswrite comment
1 2 3 4 5
3 more votes to show rating
add to favorites
launch autoscroll
font size
0
reset
how to read this tab
guitar tuner
Autoscroll
slow
fast
+/-
esc
set tempo
stop
Help us to improve Ultimate-Guitar.com Take our survey!
×
Espero que sea de su agrado, saludos a la gentita de Veterinaria
de la Universidad Nacional de Piura.
Para una niña muy especial que me inspiró a tocar esta canción, cada
vez que a escucho pienso en ella A.S.

Intro: Pónganle un poco de velocidad.

E|-9-9-10-12-10-9------------------9-10-9--------------
B|----------------12-10-12------12--------12-10-9-10---
G|-----------------------------------------------------
D|-----------------------------------------------------
A|-----------------------------------------------------
E|-----------------------------------------------------

E|----------9------------------------------------------
B|-----10-12-12-10-9---10-9-9-9-10-9-9-10-12-----------
G|-------------------11--------------------------------
D|-----------------------------------------------------
A|-----------------------------------------------------
E|-----------------------------------------------------

E|-9-9-10-12-10-9------------------9-10-9--------------
B|----------------12-10-12------12--------12-10-9-10---
G|-----------------------------------------------------
D|-----------------------------------------------------
A|-----------------------------------------------------
E|-----------------------------------------------------

E|----------9------------------------------------------
B|-----10-12-12-10-9---10-9-9-9-10-9--9-10-12/14--------
G|-------------------11--------------------------------
D|-----------------------------------------------------
A|-----------------------------------------------------
E|-----------------------------------------------------


A
Es una mujer divina
E
Ahí la ven cuando patina
D
Como saben que es costeña
E
Con su cola todos sueñan

A
Y no saben lo difícil
E
que es desearla entre mis brazos
D
y no saben lo terrible
E
que a ninguno le hace caso
D         E
HOOOOOOOOOAAAOOOOOOO
D                                 E
Pero ya llego el momento de confesarlo


CORO

A                         E
Hoy estoy dispuesta a conquistar
                     D
aquella chica que yo vi
                    E                          A
Un día que estaba trotando en la playita iba cantando
                      E
Nos cruzamos las miradas
                D
dijimos cero palabras
                             E                            A E D E
hasta que me encontré a una amiga y dijo que nos presentaba


A                   E
La invitaba a manzanillo
                 D
y me decía "no cariño"
                         E
yo la invitaba a rumbear
                    A
me decía:"no se bailar

                         E
Fue un tormento todo el tiempo
                  D
pero se acabo conmigo
                     E
ese mito que otros tantos
                    A
no pudieron realizar


                       E
Cuando nos conocimos fuimos amigos
     D             E
hoy somos pareja vivimos felices
A                                  E
tengo que agradecerle toda la vida
                D                  E
a mi linda amiga , logró lo imposible

CORO

A                         E
Hoy estoy dispuesta a conquistar
                     D
aquella chica que yo vi
                    E                          A
Un día que estaba trotando en la playita iba cantando
                      E
Nos cruzamos las miradas
                D
dijimos cero palabras
                             E                            A E D E
hasta que me encontré a una amiga y dijo que nos presentaba

A                     D
Conquistarla era mi sueño
                    A           E
y en las noches mi desvelo, de amor

(Sube un tono)

CORO
B                            F#
Hoy estoy dispuesta a conquistar
                     E
aquella chica que yo vi
                    F#                          B
Un día que estaba trotando en la playita iba cantando
                      F#
Nos cruzamos las miradas
                E
dijimos cero palabras
                             F#                            B F# E F#
hasta que me encontré a una amiga y dijo que nos presentaba
Suggest correction
Give kudos to tab author, rate the tab!
1 2 3 4 5
comments
print report bad tab
guest
You may want to rate the tab now too:
select rating
Wanna post a correction for this tab? Suggest correction