Oops, an error
Loading. Please wait.

Only In You tab

19 views 1 this week
2 commentsread comments
1 2 3 4 5
3 more votes to show rating
add to favorites
×
Save as Personal and add changes to this tab that will be seen only by you. Learn more ›
×
You can save this tab as Personal to edit and correct it or add notes. All changes will be seen only by you. Learn more »
launch autoscroll
font size
0
reset
how to read this tab
guitar tuner
edit
Autoscroll
slow
fast
+/-
esc
set tempo
stop
Author
Difficulty
About this tab version
It has the solo and the finger picking of the intro. Was this info helpful? Yes No
Only In You By Jeremy Camp 

[Intro]

      4x       1x          4x          1x
E|---------| |------| |------------| |-----|
A|-7---7---| |-7-9--| |-4---4------| |-4-2-|
D|---9-----| |------| |---6-----6--| |-----|
G|-9-----9-| |-9-11-| |-6-----6----| |-6-4-|
B|---------| |------| |------------| |-----|
E|---------| |------| |------------| |-----|

[Verse One]

             E          F#m    C#m
There’s a place where thirsty souls 
   B   E               F#m      C#m
Find living water and thirst no more 
    B     A                B      C#m
And there’s a place where weary hearts 
              B               A
Find perfect rest in mercy’s arms 
            E 
In mercy’s arms

Finger Picking of the Verses:

      4x          1x          4x         1x  
E|-----------| |------| |------------| |-----|
A|-7---7-----| |-7-9--| |-4---4------| |-4-2-|
D|---9-----9-| |------| |---6-----6--| |-----|     2x Played Twice
G|-9-----9---| |-9-11-| |-6-----6----| |-6-4-|
B|-----------| |------| |------------| |-----|
C|-----------| |------| |------------| |-----|


       4x       1x        4x         B 4x          A 4x      E 1 Strum
E|-----------| |---| |----------| |-----------| |-----------| |---|
A|-0---0-----| |-2-| |-4---4----| |-2---2-----| |-0---0-----| |-7-|
D|---2-----2-| |---| |---6----6-| |---4-----4-| |---2-----2-| |-9-|
G|-2-----2---| |-4-| |-6-----6--| |-4-----4---| |-2-----2---| |-9-|
B|-----------| |---| |----------| |-----------| |-----------| |---|
E|-----------| |---| |----------| |-----------| |-----------| |---|

[Chorus One]                                      
 
 E 
Only in You (Hey!) Only in You (Hey!) 
C#m                          A
Here in Your presence You’re making us new 
 E
Only in You (Hey!) Only in You (Hey!) 
C#m                      A                    E
Nothing compares to the life we find only in You 
 E                        B
Woah-oh-oh-oh, woah-oh-oh
C#m             A
Woah-oh-oh-oh, woah-oh-oh

Chorus Solo With The Woah-oh-oh
E|---------------|-------------|----------------------------|
A|---------------|-------------|----------------------------|
D|---------------|-------------|-----------------------11-9-|
G|-13----13-11-9-|-13----13-11-|-13----13-11-9-9-11-13------|
B|----12---------|----12-------|----12----------------------|
E|---------------|-------------|----------------------------|
                              N.C.
                              The 9 starts the beginning of Verse 2.

[Verse Two]                                                  
                                                   
             E          F#m     C#m
There’s a place where fear can’t stand 
       B   E               F#m      C#m
Where the broken down need healing hands 
       B     A              B      C#m
And there’s a place where glory’s light 
                B                  A
Makes shackles fall, and shadows hide
             E
And shadows hide 


Finger Picking of the Verses:

      4x          1x          4x         1x  
E|-----------| |------| |------------| |-----|
A|-7---7-----| |-7-9--| |-4---4------| |-4-2-|
D|---9-----9-| |------| |---6-----6--| |-----|     x2 Played Twice
G|-9-----9---| |-9-11-| |-6-----6----| |-6-4-|
B|-----------| |------| |------------| |-----|
C|-----------| |------| |------------| |-----|


        4x      1x        4x           4x            4x         1 Strum
E|-----------| |---| |----------| |-----------| |-----------| |---|
A|-0---0-----| |-2-| |-4---4----| |-2---2-----| |-0---0-----| |-7-|
D|---2-----2-| |---| |---6----6-| |---4-----4-| |---2-----2-| |-9-|
G|-2-----2---| |-4-| |-6-----6--| |-4-----4---| |-2-----2---| |-9-|
B|-----------| |---| |----------| |-----------| |-----------| |---|
E|-----------| |---| |----------| |-----------| |-----------| |---|

[Chorus Two]

 E 
Only in You (Hey!) Only in You (Hey!) 
C#m                          A
Here in Your presence You’re making us new 
 E
Only in You (Hey!) Only in You (Hey!) 
C#m                      A                    E
Nothing compares to the life we find only in You 
 E                        B
Woah-oh-oh-oh, woah-oh-oh
C#m             A
Woah-oh-oh-oh, woah-oh-oh

Chorus Solo With The Woah-oh-oh

E|---------------|-------------|--------------------------|
A|---------------|-------------|--------------------------|
D|---------------|-------------|-----------------------11-|
G|-13----13-11-9-|-13----13-11-|-13----13-11-9-9-11-13----|
B|----12---------|----12-------|----12--------------------|
E|---------------|-------------|--------------------------|

[Bridge One]

           B
Our Strong Tower, our Great Refuge 
        A              E
In the shadow of Your wings
B           
Halleluiah! We have found 
                A                E
The source of everything we need

[Chorus Three]
 
 E 
Only in You (Hey!) Only in You (Hey!) 
C#m                          A
Here in Your presence You’re making us new 
 E
Only in You (Hey!) Only in You (Hey!) 
C#m                      A                    E
Nothing compares to the life we find only in You 
 E                        B
Woah-oh-oh-oh, woah-oh-oh
C#m             A
Woah-oh-oh-oh, woah-oh-oh

Chorus Solo With The Woah-oh-oh
 
E|---------------|-------------|--------------------------|
A|---------------|-------------|--------------------------|
D|---------------|-------------|-----------------------11-|  X2
G|-13----13-11-9-|-13----13-11-|-13----13-11-9-9-11-13----|
B|----12---------|----12-------|----12--------------------|
E|---------------|-------------|--------------------------|

The Ending: After The Chorus 4x
E|----------------------------|
A|----------------------------|
D|----------------------------|
G|----------------------------|
B|-13----13-11-9-13----13-11--|
E|----12------------12--------|

N.C.
I couldn't figure out the fancy version of the ending solo. This is the simple way.
We play this song at church. I did the solo parts by ear so I hope there right. 
Enjoy. 

            
            
Suggest correction
Creating personal tab
Creating personal tab
You can edit any tab online and save it as your Personal.

You can edit, replace or remove any tab part or add personal notes – all changes will be seen only by you.

Personal tabs can be accessed anytime from any device, even offline.
Learn more »
Give kudos to tab author, rate the tab!
1 2 3 4 5
comments
print report bad tab
2 comments total.
0 reply
goldrush4481 10 May 23, 2017 03:44 PM

So one thing wrong with this tab that 1st riff at the beginning is after 7
9
there should be a nine on the g. other than that it is good

guest
You may want to rate the tab now too:
select rating
Wanna post a correction for this tab? Suggest correction