Oops, an error
Loading. Please wait.

Cater 2 U tab

version 4
version 4

Whole song

50,119 views 15 this week
1 commentread comment
1 2 3 4 5
x 9
add to favorites
×
Save as Personal and add changes to this tab that will be seen only by you. Learn more ›
×
You can save this tab as Personal to edit and correct it or add notes. All changes will be seen only by you. Learn more »
launch autoscroll
font size
0
reset
how to read this tab
guitar tuner
edit
Autoscroll
slow
fast
+/-
esc
set tempo
stop
About this tab version
I'd say this is a good start for someone just learning this song. Was this info helpful? Yes No
----------------------------------------------------------------------------
                             Cater 2 U - Passion
----------------------------------------------------------------------------


Tabbed by: Michael Barrientos
/Kulang

Tuning: capo 3rd fret

A lot of tabs on here are really similar.. but I wanted to post one of my own.


 Intro
e|------------3------------------------------------------------------------|
B|----------5------------2h3-------0h1-----------1h3p1---------------------|
G|--------4--------------2---------0-------------------0-------------------|
D|------5----------------2h4-------0h2--------2-------------2--------------|
A|----3------------------2---------0---------------------------------------|
E|-------------------------------------------------------------------------|

e|---------------------------------------------2h5p2-----------------------|
B|-------------------------------3-------------------3h5p3-----------------|
G|-------------------------2-------------------------------------2---------|
D|-------------------4-----------------------------------------------4-----|
A|---0------1/2------------------------------------------------------------|
E|-------------------------------------------------------------------------|

e|-------------------------------------------------------------------------|
B|-------------------------------------------------------------------------|
G|-----0----------0----2/4--2---0------------------------------------------|
D|-----0---0h2----------------------2--------------------------------------|
A|-------------------------------------------------------------------------|
E|-----0-------------------------------------------------------------------|

e|-------------------------------------------------------------------------|
B|------------------------------3h5---------3h5--------3h5-----------------|
G|------------------------------4-----------4----------4-------------------|
D|-------5------5----------------------------------------------------------|
A|----------3--------------------------------------------------------------|
E|-------------------------------------------------------------------------|

e|-------------------------------------------------------------------------|
B|-----2h3-------------0h1----------------1h3p1----------------------------|
G|-----2---------------0----------------------------0----------------------|
D|-----2h4-------------0h2------------2-------------------2----------------|
A|-----2---------------0---------------------------------------------------|
E|-------------------------------------------------------------------------|

e|--------------------------------------------2h5p2------------------------|
B|-----------------------------------3----------------3--------------------|
G|-------------------------------2-----------------------2-----------------|
D|---------------------------4------------------------------4--------------|
A|---0-----1----1/2--------------------------------------------------------|
E|-------------------------------------------------------------------------|

e|-------------------------------------------------------------------------|
B|-----0-------------0---------2h3-----------------------------------------|
G|-----0----------0------------2-------------------------------------------|
D|-----0-------0---------------2h4-----------------------------------------|
A|-----------------------------2-------------------------------------------|
E|-----0-------------------------------------------------------------------|


 Verse I
e|-------------------3-----------------------------------------x-----------|
B|----------------5-----------------2h3---------0h1----------1-x-----------|
G|-------------4--------------------2-----------0------------0-x-----------|
D|---5------5-----------------------2h4---------0h2----------2-x-----------|
A|------3---------------------------2-----------0--------------x-----------|
E|-------------------------------------------------------------x-----------|

e|---------------------------------2h5p2-----------------------------------|
B|---------------------------3----------------3---------0------0-----------|
G|----------------------2------------------------2------0----------0-------|
D|-----------------4-------------------------------4----0------------------|
A|----0--1--1/2------------------------------------------------------------|
E|------------------------------------------------------0------------------|


e|-------------------------------------------------------------------------|
B|------------3------------------------------------------------------------|
G|---------2---------------------------------------------------------------|
D|------4------------------------------------------------------------------|
A|---2---------------------------------------------------------------------|
E|-------------------------------------------------------------------------|

add a little variations and you're good.


| /  slide up
| h  hammer-on
| p  pull-off
| x  tap

            
            
Suggest correction
Creating personal tab
Creating personal tab
You can edit any tab online and save it as your Personal.

You can edit, replace or remove any tab part or add personal notes – all changes will be seen only by you.

Personal tabs can be accessed anytime from any device, even offline.
Learn more »
comments
print report bad tab
1 comment total.
0 reply
vonviccayas 263 Jul 28, 2015 05:42 PM

Damn this song hard, but speaking from a newbie tho... Love this tab tho!

guest
You may want to rate the tab now too:
select rating
Wanna post a correction for this tab? Suggest correction