Oops, an error
Loading. Please wait.

A Chance Meeting Tab

680 views 3 this week
no commentswrite comment
1 2 3 4 5
please rate
add to favorites
launch autoscroll
font size
0
reset
how to read this tab
guitar tuner
Autoscroll
slow
fast
+/-
esc
set tempo
stop
Help us to improve Ultimate-Guitar.com Take our survey!
×
Author
Difficulty
novice
-------------------------------------------------------------------------------
                  A Chance Meeting(Skyrim OST) - Jeremy Soule
-------------------------------------------------------------------------------
Tabbed by: Diego Silva
E-mail: die_sil_ca@hotmail.com

Tuning: Standard

e|---------------------------------------------------------------------------|
B|-/9~~--12-/16~~~--12-/14~--11-------------/16-14-16--/21~~19h21~~19-16-14~~|
G|------------------------------13~------------------------------------------|
D|---------------------------------------------------------------------------|
A|---------------------------------------------------------------------------|
E|---------------------------------------------------------------------------|

e|---------------------------------------------------------------------------|
B|-12--14--/16~~~~--------/17~--16-12---------12--/16--12h14~----/17~--16-12-|
G|---------------------13~-------------13------------------------------------|
D|---------------------------------------------------------------------------|
A|---------------------------------------------------------------------------|
E|---------------------------------------------------------------------------|

e|---------------------------------------------------------------------------|
B|----------------------16-19-/21~~19h21~~19-----/16--12--/14~~---12-14-/16--|
G|-13~~--13~~~~~~------------------------------------------------------------|
D|---------------------------------------------------------------------------|
A|---------------------------------------------------------------------------|
E|---------------------------------------------------------------------------|

e|---------------------------------------------------------------------------|
B|-----17--16-12----(16)-16--19--/21~~19h21~~19-16~--12--16p14~--12-14-/16~--|
G|-13~-----------13~~~~~-----------------------------------------------------|
D|---------------------------------------------------------------------------|
A|---------------------------------------------------------------------------|
E|---------------------------------------------------------------------------|

e|---------------------------------------------------------------------------|
B|-------/17~-16-12------12~-14p12h14-16-14~~--/17~-16-12--------------------|
G|-13-13------------13~~----------------------------------13~--13~~~~~~~-----|
D|---------------------------------------------------------------------------|
A|---------------------------------------------------------------------------|
E|---------------------------------------------------------------------------|

e|---------------------------------------------------------------------------|
B|-------------------------------(9)~~~~~~~--12--16~~-12-/14~--11------------|
G|----------------------------------------------------------------13~~~~~~---|
D|---------------------------------------------------------------------------|
A|---------------------------------------------------------------------------|
E|---------------------------------------------------------------------------|

e|---------------------------------------------------------------------------|
B|-16-19-/21~~19h21~19h21~~19-16-14~~-12--14--/16~~~~--------/17~--16-12-----|
G|--------------------------------------------------------13~------------13--|
D|---------------------------------------------------------------------------|
A|---------------------------------------------------------------------------|
E|---------------------------------------------------------------------------|

e|---------------------------------------------------------------------------|
B|-12--/16--12h14~----/17~--16-12--------------16-19-/21~~19h21~~19-----/16--|
G|--------------------------------13~~--13~~~~-------------------------------|
D|---------------------------------------------------------------------------|
A|---------------------------------------------------------------------------|
E|---------------------------------------------------------------------------|

e|---------------------------------------------------------------------------|
B|-12--/14~~---12-14-/16~~-----/17~~-16-12-------16-19-/21~~19h21-19-16~~~~--|
G|-------------------------13~-------------13~~~~----------------------------|
D|---------------------------------------------------------------------------|
A|---------------------------------------------------------------------------|
E|---------------------------------------------------------------------------|

e|---------------------------------------------------------------------------|
B|-12--16p14~--12-14-/16~~---/17~~-16-12-----12~-14p12h14-16-14~~--/17~-16-12|
G|-------------------------13------------13~~--------------------------------|
D|---------------------------------------------------------------------------|
A|---------------------------------------------------------------------------|
E|---------------------------------------------------------------------------|

e|---------------------------------------------------------------------------|
B|---------------------------------------------------------------------------|
G|-13~~--13~~~~~~~~~~~-------------------------------------------------------|
D|---------------------------------------------------------------------------|
A|---------------------------------------------------------------------------|
E|---------------------------------------------------------------------------|


************************************

| /   slide up
| \   slide down
| h   hammer-on
| p   pull-off
| ~   vibrato
| +   harmonic
| x   Mute note
| b   Bend
| pb  Pre-bend
| br  Bend release
| pbr Pre-bend release
| brb Bend release bend

************************************
Suggest correction
Give kudos to tab author, rate the tab!
1 2 3 4 5
comments
print report bad tab
guest
You may want to rate the tab now too:
select rating
Please do not post tabs as comments. Select "correction" instead!