Oops, an error
Loading. Please wait.

Alls Well Tab

version 1
version 1

Whole song

Interactive

855 views 1 this week
no commentswrite comment
1 2 3 4 5
please rate
add to favorites
launch autoscroll
font size
0
reset
how to read this tab
guitar tuner
Autoscroll
slow
fast
+/-
esc
set tempo
stop
Help us to improve Ultimate-Guitar.com Take our survey!
×
Author
Artist: Jeremy Soule
Album: The Elder Scrolls IV: Oblivion
Song: Alls Well
Tabbed By: A Dead Fly


Arranged for one guitar with standard tuning

Listen to the song for rythym because it's really weird


e|-4--2h4p2-1---1---1-2|----------------|-4-2h4p2--1---1---1-|-2--------------|
B|------------4---4----|----------------|------------4---4---|----------------|
G|---------------------|--------3---3---|--------------------|------3---------|
D|---------------------|--4--6--------4-|--------------------|----4---------4-|
A|---------------------|----------------|--------------------|----------------|
E|-2-------------------|----------------|-2------------------|----------2-----|

e|-9--8h9p8-6-8-6------|-6-----------------|-9--8h9p8-6-8---6|----------------|
B|----------------9---9|---7---------------|--------------9--|----------------|
G|---------------------|----------------11-|-----------------|----------------|
D|---------------------|------6--8---------|----------------6|---------8------|
A|----------------6----|------------9------|-9---------------|----------------|
E|-9-------------------|-------------------|-----------------|----------------|

e|--------------------6|----------------|------------------6|----------------|
B|-7--6h9p7-6---6-7---7|----------------|-7--7p6---6-7---9--|-7--------------|
G|------------8-----8--|----------------|--------8-----8----|---6------------|
D|-8-------------------|---------8------|-------------------|---4------------|
A|---------------------|---------9------|-4-----------------|----------------|
E|---------------------|---------9------|-------------------|----------------|

e|-9--8h9p8-6-8---6-8-9|---11p9---------|-9-8-6-8-9-11p9-8-9|----------------|
B|--------------9------|----------------|-------------------|----------------|
G|---------------------|----------------|-------------------|----------------|
D|---------------------|----------------|-------------------|----11----------|
A|---------------------|----------------|---------6---------|----------------|
E|-9-------------------|----------11----|-9-----------------|----------------|

e|-6h9h11-9----9--11---|----9-----11----|-9-14-11h14--------|----------------|
B|-------------------9-|-11----------11-|------------------9|-11-----9-------|
G|-------------11------|--------8-------|-------------8-11--|----------------|
D|-------------------11|----------------|-------------------|----------------|
A|-------------9-------|----------------|-------------------|-11-------------|
E|-------------------9-|----------------|-------------------|----------------|

e|-6--------------|---6-----4------|-6--------------|-----------------|
B|---------------7|-9--------------|---4------------|-4-------4-4-1---|
G|---8---------8--|----------------|----------------|-------1---------|
D|----------------|-----4-------3--|----------------|-----1-----------|
A|-----6-------6--|----------------|-----6----------|-----------------|
E|----------------|----------------|----------------|-4---------------|

e|--------9-11----|-9-11-------------|------11----14-13|-11-9-11--------|
B|----------------|------9----9p7----|-----------------|----------------|
G|-------------8--|---------------10-|-8-10-------11---|------8---------|
D|----------------|------6-----------|-----------------|----------------|
A|----------------|------------------|------9----------|----------------|
E|-4--------------|------------------|-----------------|----------------|

e|-14-13-11-9-11----|---------------11----|-14-13-11-9------|-------------14-13|
B|------------------|-7h9p7---------------|------------9----|-----7---6--------|
G|-11---------------|-------10-8-10-11----|-----------------|-6---------8------|
D|------------------|---------------------|------------6----|------------------|
A|------------11----|---------------------|-----------------|------------------|
E|------------------|---------------------|-----------------|------------------|

e|-11-9-----------|-------------------|----------------|------9---------|
B|------7-----10--|----9p7h9---7---9--|----12------10--|----9-----------|
G|----------------|-------------------|----------------|-----------9----|
D|------7---------|----------------6--|----------------|----------------|
A|----------------|-------------------|---------9------|--9-------------|
E|----------------|-------------------|----------------|----------------|

e|-------------------|-------------------|-----------------|-----------------|
B|-10--------12--10-9|-10--------9---7---|-9---------------|-----------------|
G|-------------------|-------------------|-----6---8---9-6-|-----6---8---9---|
D|---------7---------|---------7---7-----|---6---6---6-----|---6---6---6-----|
A|-------9-----------|-------9---------9-|-----------------|-4---------------|
E|----10-------------|----10-------------|-----------------|-----------------|

e|-----------------|------------------|-9---------------|---------7-------|
B|-7-----------7---|-----7---9---10---|-----7-------7---|-----7-----------|
G|-----7---9-----7-|------------------|-----------------|-----------------|
D|---7---7---7-----|---7---7---7----7-|---7---7---7---7-|---7---7---------|
A|-----------------|------------------|-----------------|-----------------|
E|-----------------|------------------|-----------------|-----------------|

e|------------------|-----------------12---|-----------------|-------9-----9-|
B|-10---------------|-12p10-9-7-9-10-------|---7---7---7-----|---7-----7-----|
G|------9---9---9---|----------------------|-----------------|---------------|
D|----7---7---7---7-|----------------------|-----------------|-7---7-----7---|
A|------------------|----------------------|-9---9---9---9---|---------------|
E|------------------|----------------------|-----------------|---------------|

e|-4--2h4p2-1---1---1-2|----------------|-4-2h4p2--1---1---1-|-2--------------|
B|------------4---4----|----------------|------------4---4---|----------------|
G|---------------------|--------3---3---|--------------------|------3---------|
D|---------------------|--4--6--------4-|--------------------|----4---------4-|
A|---------------------|----------------|--------------------|----------------|
E|-2-------------------|----------------|-2------------------|----------2-----|

e|-9--8h9p8-6-8-6------|-6-----------------|-9--8h9p8-6-8---6|----------------|
B|----------------9---9|---7---------------|--------------9--|----------------|
G|---------------------|----------------11-|-----------------|----------------|
D|---------------------|------6--8---------|----------------6|---------8------|
A|----------------6----|------------9------|-9---------------|----------------|
E|-9-------------------|-------------------|-----------------|----------------|


e|----------------|----------------|----------------|----------------|
B|--7-------------|--7-------------|--7-------------|----------------|
G|----------------|----------------|----------------|----------------|
D|--8---6---8---6-|--8---6---8---6-|--6---8---6---8-|---------6---8--|
A|----------------|----------------|----------------|----------------|
E|----------------|----------------|----------------|----------------|



Email questions to azlizard13@yahoo.com

Please give me credit if you use this tab for a video
Suggest correction
What's this?
You can suggest a correction to this tab. Community and Mods will review your correction and vote to approve or reject it.
comments
We did not receive enough feedback on this tab! Please rate:
print report bad tab
1 2 3 4 5
guest
You may want to rate the tab now too:
select rating
Please do not post tabs as comments. Select "correction" instead!