Oops, an error
Loading. Please wait.

Caprice Tab

version 1
version 1

Whole song

Interactive

366 views 1 this week
1 commentread comment
1 2 3 4 5
please rate
add to favorites
launch autoscroll
font size
0
reset
how to read this tab
guitar tuner
Autoscroll
slow
fast
+/-
esc
set tempo
stop
Help us to improve Ultimate-Guitar.com Take our survey!
×
Author
Difficulty
novice
Artist: Jeremy Soule
Album: The Elder Scrolls III: Morrowind
Song: Caprice
Tabbed by: A Dead Fly

This tab is for one guitar with standard tuning, the song has
really weird timing so you have to listen closely.

e|-----------------|-----------------|------------------|
B|-----------------|-----------------|------------------|
G|-5---6---8---5---|-6---8---5---6---|-8---10---6---8---|
D|---6---6---6---6-|---6---6---6---6-|---6----6---6---6-|
A|-----------------|-----------------|------------------|
E|-----------------|-----------------|------------------|

Play that three times

e|-----------------|-----------------|------------------|
B|-----------------|-----------------|------------------|
G|-5---6---8---5---|-6---8---5---6---|-8---10---6---8---|
D|---6---6---6---6-|---6---6---6---6-|---6----6---6-----|
A|-----------------|-----------------|------------------|
E|-----------------|-----------------|------------------|

e|----------------|----------------|----------------|----------------|
B|----------------|---------6------|----------------|----------------|
G|-5--------------|-3-------3------|----------------|-8--------------|
D|----------------|---------3------|----------------|-6--------------|
A|--------6-------|----------------|----------------|-6--------------|
E|----------------|----------------|----------------|----------------|

e|---------6------|--6-----------6-|----------6-----|------6---------|
B|---------4------|------9---------|--9-----------9-|----------9-----|
G|---------3------|---------10-----|-----10---------|-10----------10-|
D|----------------|----------------|----------------|----------------|
A|----------------|----------------|----------------|----------------|
E|----------------|----------------|----------------|----------------|

e|--6-----------6-|----------6-----|------6---------|--6-------------|
B|------9---------|--9-----------9-|----------9-----|------9-------9-|
G|---------10-----|-----10---------|-10----------10-|----------------|
D|----------------|----------------|----------------|----------------|
A|----------------|----------------|----------------|----------------|
E|----------------|----------------|----------------|----------------|

e|--8-------------|---------11-----|----------------|-----13---------|
B|----------------|-------------11-|----------------|----------9-----|
G|----------------|----------------|----------------|----------------|
D|----------------|----------------|----------------|----------------|
A|----------------|----------------|----------------|----------------|
E|----------------|----------------|----------------|----------------|

e|----------------|-11-------------|----------------|----------------|
B|----------------|-----11---------|---------6------|-9--------------|
G|----------------|----------------|----------------|----------------|
D|----------------|----------------|----------------|----------------|
A|----------------|----------------|----------------|----------------|
E|----------------|----------------|----------------|----------------|

e|----------------|----------------|----------------|----------------|
B|-8--------------|----------------|--------6-------|---------8------|
G|---------5------|----------------|-8--------------|----------------|
D|----------------|----------------|----------------|----------------|
A|----------------|----------------|----------------|----------------|
E|----------------|----------------|----------------|----------------|

e|---------6------|-8--------------|----------------|----------------|
B|--9-------------|----------------|----------------|-7--------------|
G|----------------|----------------|----------------|----------------|
D|----------------|----------------|----------------|----------------|
A|----------------|----------------|----------------|----------------|
E|----------------|----------------|----------------|----------------|

e|----------------|----------------|----------------|----------------|
B|----------------|----------------|----------------|----------------|
G|--6------8------|----------------|----------------|----------------|
D|----------------|------6------8--|----------------|----------------|
A|----------------|----------------|-------------4--|-----6----------|
E|----------------|----------------|----------------|----------------|

e|----------------|----------------|----------------|----------------|
B|--6-------------|----------------|-9--------------|----------------|
G|--6-------------|----------------|-6--------------|----------------|
D|--8-------------|----------------|-6--------------|----------------|
A|----------------|----------------|----------------|----------------|
E|----------------|----------------|----------------|----------------|

e|--2---6---4-----|----------2---6-|--4-------------|--2---6---4---8-|
B|----------------|----------------|----------------|----------------|
G|----------------|----------------|----------------|----------------|
D|----------------|----------------|----------------|----------------|
A|----------------|----------------|----------------|----------------|
E|----------------|----------------|----------------|----------------|

e|--9-------------|--2------1------|--4-------------|--2-------------|
B|----------------|----------------|----------------|--2-------------|
G|----------------|----------------|----------------|----------------|
D|----------------|----------------|----------------|----------------|
A|----------------|----------------|----------------|----------------|
E|----------------|----------------|----------------|----------------|

e|----------------|--------------2-|-----1----------|----------------|
B|---------2------|----------------|---------2---4--|-----4------2---|
G|---------1------|----------------|----------------|----------------|
D|----------------|----------------|----------------|----------------|
A|----------------|----------------|----------------|----------------|
E|----------------|----------------|----------------|----------------|

e|-------------2--|-----1-------4--|----------------|--4-------------|
B|-----4----------|---------2------|----------------|----------------|
G|----------------|----------------|----------------|----------------|
D|----------------|----------------|----------------|----------------|
A|----------------|----------------|----------------|----------------|
E|----------------|----------------|----------------|----------------|


e|-----------------|-----------------|------------------|
B|-----------------|-----------------|------------------|
G|-5---6---8---5---|-6---8---5---6---|-8---10---6---8---|
D|---6---6---6---6-|---6---6---6---6-|---6----6---6---6-|
A|-----------------|-----------------|------------------|
E|-----------------|-----------------|------------------|

Play that three times

e|-----------------|-----------------|------------------|
B|-----------------|-----------------|------------------|
G|-5---6---8---5---|-6---8---5---6---|-8---10---6---8---|
D|---6---6---6---6-|---6---6---6---6-|---6----6---6-----|
A|-----------------|-----------------|------------------|
E|-----------------|-----------------|------------------|

e|----------------|----------------|--1-------------|--3-------------|
B|----------------|----------------|----------------|----------------|
G|--------5-------|---------3------|----------------|----------------|
D|----------------|----------------|----------------|----------------|
A|----------------|--6-------------|----------------|----------------|
E|----------------|----------------|----------------|----------------|

e|--4-------------|--6-------------|--8-------------|--6-----------6-|
B|----------------|----------------|----------------|------9---------|
G|----------------|----------------|----------------|----------10----|
D|----------------|----------------|----------------|----------------|
A|----------------|----------------|----------------|----------------|
E|----------------|----------------|----------------|----------------|

e|----------6-----|----------------|---------6------|----------------|
B|--9-----------9-|--6-----------8-|----------------|--------------9-|
G|-----10---------|----------------|----------------|----------------|
D|----------------|----------------|----------------|----------------|
A|----------------|----------------|----------------|----------------|
E|----------------|----------------|----------------|----------------|

e|--8-------------|---------11-----|----------------|-----13---------|
B|----------------|-------------11-|----------------|----------9-----|
G|----------------|----------------|----------------|----------------|
D|----------------|----------------|----------------|----------------|
A|----------------|----------------|----------------|----------------|
E|----------------|----------------|----------------|----------------|

e|-11-------------|----------------|----------------|----------------|
B|-----11---------|--------6-------|--9-------------|--8-------------|
G|----------------|----------------|----------------|---------5------|
D|----------------|----------------|----------------|----------------|
A|----------------|----------------|----------------|----------------|
E|----------------|----------------|----------------|----------------|

e|----------------|----------------|----------------|---------6------|
B|----------------|---------6------|----------8-----|--9-------------|
G|----------------|--8-------------|----------------|----------------|
D|----------------|----------------|----------------|----------------|
A|----------------|----------------|----------------|----------------|
E|----------------|----------------|----------------|----------------|

e|--8-------------|----------------|----------------|----------------|
B|----------------|----------------|----------------|----------------|
G|----------------|--3---1-------3-|--1-------3---1-|------3---1-----|
D|----------------|----------3-----|------3---------|--3-----------3-|
A|----------------|----------------|----------------|----------------|
E|----------------|----------------|----------------|----------------|

e|----------------|----------------|----------------|--4-------------|
B|----------------|----------------|----------------|----------------|
G|--3---1-------3-|--1-------------|----------------|----------------|
D|----------3-----|------3---------|----------------|----------------|
A|----------------|----------------|----------------|----------------|
E|----------------|----------------|----------------|----------------|

e|----------------|----------------|----------------|
B|----------------|--4-------------|----------------|
G|----------------|----------------|----------------|
D|----------------|----------------|----------------|
A|----------------|----------------|----------------|
E|----------------|----------------|----------------|

Email me at azlizard13@yahoo.com
Please give me credit if you use this tab for a video
Suggest correction
What's this?
You can suggest a correction to this tab. Community and Mods will review your correction and vote to approve or reject it.
comments
We did not receive enough feedback on this tab! Please rate:
print report bad tab
1 2 3 4 5
1 comment total.
0 reply
The_Raven 1,039 wrote on June 10 2011, 05:21 am

Love this track. Will be playing this all week! Thanks.

guest
You may want to rate the tab now too:
select rating
Please do not post tabs as comments. Select "correction" instead!