Oops, an error
Loading. Please wait.

Glory Of Cyrodiil Tab

version 1
version 1

Whole song

Interactive

795 views 6 this week
no commentswrite comment
1 2 3 4 5
please rate
add to favorites
launch autoscroll
font size
0
reset
how to read this tab
guitar tuner
Tab Pro tools
  • play this tab
  • loop segment
  • change instrument
  • show fretboard
  • metronome
×
Best way to learn
"Glory Of Cyrodiil"
Autoscroll
slow
fast
+/-
esc
set tempo
stop
Contributor
Difficulty
novice
Artist: Jeremy Soule
Album: The Elder Scrolls IV: Oblivion
Song: Glory of Cyrodiil
Tabbed by: A Dead Fly

Song for one guitar with standard tuning.


e|----------------|----------------|----------------|----------------|
B|--9-------------|-----------8----|--9-------------|-----------8----|
G|----------------|----------------|----------------|----------------|
D|----------------|----------------|----------------|----------------|
A|--6-------------|--6-------------|--6------6------|-------6--------|
E|----------------|----------------|----------------|----------------|

e|-------8-8-8--10p8-|----------------|--------8-8-8--10p8-|------------10--|
B|-9-----------------|-----------8----|--9-----------------|----------------|
G|-------------------|----------------|--------------------|------------7---|
D|-6-----------------|----------------|--------------------|----------------|
A|-------------------|----------------|--------------------|----------------|
E|-------------------|----------------|--------------------|----------------|

e|-11-------------|-------13-------|-10-------------|----------------------|
B|----------------|----------------|----------------|----------------------|
G|-8--------------|-------10-------|--7-------------|----------------------|
D|----------------|----------------|-------------10-|---------------10--12-|
A|-----------10---|-11-------------|-----10--11-----|--------10-11---------|
E|----------------|-----------11---|-------------8--|-10-11----------------|

e|----------------|-----------------|----------------|----------------|
B|----------------|-----------------|----------------|----------------|
G|-8----------7-5-|-7-----------5---|-5---------5----|----------------|
D|----------------|----------8----8-|-8------6-----6-|-5-----------5--|
A|-------5-6------|-8-10------------|------6---------|-5-----5--------|
E|-----8----------|------10---------|----------------|-3-3-6----------|

e|----------------|----------------|----------------|-------------3--|
B|-4--------------|----------------|----------------|----------------|
G|---------5--7-5-|-7-------7--5-3-|-5----------3-5-|---------4------|
D|-------6--------|-------8--------|-3---3-5-6------|-5-----5--------|
A|-----6----------|-8---8----------|---3------------|-----5----------|
E|---4------------|---6------------|----------------|---3------------|

e|-----1-----3-4--|-1------------1-|-3---1------3-4-|-8-----10-------|
B|----------------|---------4------|----------------|----------------|
G|----------------|----------------|------------0---|-5--5---------7-|
D|----------------|----------------|----------------|------------5---|
A|----------------|----------------|----------------|----------6-----|
E|-4---4----------|-3---3----------|-4--------------|----------------|

e|-11--------10-8-|-10---------8-6-|-8----------6-4-|-3----------3---|
B|----------------|----------------|----------------|--------------3-|
G|-8---------7--5-|-7----------5-3-|-5----------3-1-|-0-----0----0---|
D|----------------|----------------|-------6--------|-----1----------|
A|----------------|----------------|-6---6----------|---------1------|
E|-8--8-11--------|-6--------------|----------------|----------------|

e|-11-------------|----------------|----------------|-----------------|
B|----------------|----------------|----------------|-----------------|
G|-8---8--8--10-12|-7-------8p7p5-5|-5----------7-5-|-5------7p5p4----|
D|----------------|-X--------------|-3---3----------|---------------5-|
A|-----------8--10|-5--------------|----------------|-----5-----------|
E|-8--------------|-6---6----------|----------------|-3---------------|

e|-----4---8---10-|----11-10-11--8-|-----4---8---10-|---13--11-10--8-|
B|----------------|----------------|----------------|----------------|
G|---------5---7--|----8--7--8---5-|---------5----7-|---10--8--7---5-|
D|----------------|----------------|---6------------|----------------|
A|----------------|----------------|----------------|----------------|
E|-4--------------|----------------|-4--------------|----------------|

e|----------------|----------------|----------------|----------------|
B|---------6---8--|----9-8------4--|-6--------------|----------------|
G|----------------|----------------|-----------5-10-|-10-------------|
D|-----6---3---5--|----6-5------1--|-3--------------|----------------|
A|----------------|----------------|-----------3-8--|-8--------------|
E|-4--------------|----------------|----------------|----------------|

e|-8---11-11-11-13p11-8|----------------|-8---11-11-11-13p11-8|
B|---------------------|--------------9-|---------------------|
G|---------------------|----------------|---------------------|
D|---------------------|----------------|---------------------|
A|---------------------|----------------|---------------------|
E|---------------------|----------------|---------------------|

e|----------------|--8-------------|----------------|
B|----------------|----------------|----------------|
G|----------------|----------------|----------------|
D|----------------|------10--------|----------------|
A|----------------|----------------|----------------|
E|----------------|--8-------------|----------------|

Email questions to azlizard13@yahoo.com

Please give me credit if you use this tab for a video
comments
We did not receive enough feedback on this tab! Please rate:
print report bad tab
1 2 3 4 5
I want to post or [tab]
guest
You may want to rate the tab now too:
select rating
Please do not post tabs as comments. Select "correction" instead!