Oops, an error
Loading. Please wait.

Skyrim solo tab

version 1
version 1

Solo

Interactive

14,336 views 30 this week
1 commentread comment
1 2 3 4 5
x 7
add to favorites
×
Save as Personal and add changes to this tab that will be seen only by you. Learn more ›
×
You can save this tab as Personal to edit and correct it or add notes. All changes will be seen only by you. Learn more »
launch autoscroll
font size
0
reset
how to read this tab
guitar tuner
edit
Autoscroll
slow
fast
+/-
esc
set tempo
stop
First tab sorry if any mistakes Enjoy!!
Played in - Drop D
If any Questions Email ScorchedEarthck@yahoo.com

E----------------------------------------------------------------------------|
A---2--4--5---5-----------------------5--4--2----2--4--5---------------------|
D----------------2--4---4----2--2-----------------------2--4---4-------------|
G-------------------------2-----------------------------------------2--4---4-|
B----------------------------------------------------------------------------|
e----------------------------------------------------------------------------|

E-------------------------------5--4--2---2--0--4--2--------------------------|
A-------------2--4--5--4--2--0------------------------5-4-5-5-4-5-5-4--7--5-0-|
D-----------------------------------------------------------------------------|
G--2--6--4--------------------------------------------------------------------|
B-----------------------------------------------------------------------------|
e-----------------------------------------------------------------------------|

E----------------------------------------------------------------------------|
A-2--2--0--2--2--0--2--2--0--4--5--0--2--2----2--2--2--2--2------------------|
D-------------------------------------------4---5--4--4--5--4----------------|
G----------------------------------------------------------------------------|
B----------------------------------------------------------------------------|
e----------------------------------------------------------------------------|
Suggest correction
Creating personal tab
Creating personal tab
You can edit any tab online and save it as your Personal.

You can edit, replace or remove any tab part or add personal notes – all changes will be seen only by you.

Personal tabs can be accessed anytime from any device, even offline.
Learn more »
comments
print report bad tab
1 comment total.
+4 reply
Cesar.Alpha42 10 Sep 27, 2013 01:26 PM

E-----------------------10--------------|
A-------------10-12--12----10-----------|
D-9-11-12--12------------------12-11-10-|
G---------------------------------------|
B---------------------------------------|
e---------------------------------------|

E-----------------------10-12--10-14-12-|
A-------------10-12--12-----------------|
D-9-11-12--12---------------------------|
G---------------------------------------|
B---------------------------------------|
e---------------------------------------|

E-12-14-15--14--12--10-----------------------|
A-----------------------13--12--10-----12-10-|
D-----------------------------------12-------|
G--------------------------------------------|
B--------------------------------------------|
e--------------------------------------------|

guest
Wanna post a correction for this tab? Suggest correction