Oops, an error
Loading. Please wait.

Skyrim Theme Tab

version 1
version 1

Whole song

40,620 views 501 this week
5 commentsread comments
1 2 3 4 5
x 26
add to favorites
launch autoscroll
font size
0
reset
how to read this tab
guitar tuner
Autoscroll
slow
fast
+/-
esc
set tempo
stop
Help us to improve Ultimate-Guitar.com Take our survey!
×
Difficulty
novice
e|------------------------------------------------|
B|------------------------------------------------|
G|--4----6----7-----9-----------------------------|
D|--4----6----7-----9-----------------------------|
A|--2----4----5-----7-----------------------------|
E|------------------------------------------------|

this part is the intro, when the monks sing the bass part.

Let the chords ring, and play it slow


This is the higher part :

e|-------------0-2----2-5-0--------------------------|
B|-0-2-3----3-----------------3-2-0------------------|
G|---------------------------------------------------|
D|---------------------------------------------------|
A|---------------------------------------------------|
E|---------------------------------------------------|

  then
e|-----------------------------------------------------------------|
B|-----------------------------------------------------------------|
G|-----------------------------------------------------------------|
D|-----------------------------------------------------------------|
A|-5-4-5-----5-4-5----4-5-7-5-4-2-----2-0-2---2-0-2---0-2-4-5-4-2--|
E|-----------------------------------------------------------------|

And you can play this 3 parts 10 hours if you want, it works :)


I hope you'll enjoy this!

Zolf'
Suggest correction
comments
print report bad tab
5 comments total. Showing first comments.
+1 reply
Komayi 221 Dec 05, 2012 05:02 PM

I think it's very nice :) But there are some things that are missing, I guess. Somewhere between ther higher and the lower part. But I don't care :) Thank you!

0 reply
ironfe48 10 Jun 29, 2013 12:51 PM

for the last part i prefer an open instead of the last 4

+3 reply
Yisfeln 10 Jul 07, 2013 08:28 PM

On last part I would have played 5-4-5 instead of 4-5-4. Also in the end I would rather put 0-2 instead of 4-2.
Otherwise good tab :)

guest
You may want to rate the tab now too:
select rating
Wanna post a correction for this tab? Suggest correction