Oops, an error
Loading. Please wait.

Sons Of Skyrim Tab

version 1
version 1

Whole song

Interactive

40,392 views 252 this week
4 commentsread comments
1 2 3 4 5
excellent!
x 22
add to favorites
launch autoscroll
font size
0
reset
how to read this tab
guitar tuner
Autoscroll
slow
fast
+/-
esc
set tempo
stop
Help us to improve Ultimate-Guitar.com Take our survey!
×
Difficulty
intermediate
E  E  E  E  E  E     E  E  E  E  E  S  S    E  E  E  E  E  E   
e|--------------------|----------------------|--------------------|
B|--0-----0--0-----0--|--0-----0--0-----2h-3-|--0-----0--0-----0--|
G|-----4--------4-----|-----4--------4-------|-----4--------4-----|
D|--------------------|----------------------|--------------------|
A|--2-----------------|----------------------|--2-----------------|
E|-----------2--------|--3--------0----------|-----------2--------|


    E  E  E  E  E  S  S      E  E  E  E  E  E     E  E  E  E  E  E   
e|-----------------------||--------------------|--0-----------------|
B|--0-----0--0-----2h-3--||--0-----------------|--0-----------------|
G|-----4--------4-------*||--------------------|--------------------|
D|----------------------*||--------------------|--------------------|
A|-----------------------||--2--2--2--2--2--2--|--------------------|
E|--3--------0-----------||--------------------|--0--0--0--0--0--0--|


    E  E  E  E  E  E     E  E  E  Q    S  S      E  S S S  S E  S S S  S  
e|--------------------|---------------------||---------------------------|
B|--0-----------------|--2-------------3p-2-||---3------3p-2-3------2h-3-|
G|--0-----------------|--2------------------||*-------0-----------0------|
D|--0-----------------|--2------------------||*-----0-----------0--------|
A|--------------------|--0--0--0--0---------||---2-----------------------|
E|--3--3--3--3--3--3--|---------------------||---------------3-----------|


    E  E  E  E  S S S S    E  S S S S E  S S S S    E  E  E  E  S S S  S    
e|--0-------------------|------------------------|------------------------||
B|-----3--2--0------0---|--0------0---0--------0-|--2--3-----0------0h-2--||
G|--------2-----------2-|-----4-----2----0---2---|--------2--------------*||
D|-----2----------2-----|-------4----------0-----|-----2----------2------*||
A|--0-----------2-------|--2---------------------|--0-----------2---------||
E|-----------0----------|-------------3----------|-----------0------------||


    E  E  E     E  E  E  E  E  E     E  E  E  E  E  E       E  E  E  E  E  E   
e|-----------|-----------------0--|--------------0--2--||---3-----------3--5--|
B|--2--3-----|--0-----------0-----|--0-----------------||---------0-----------|
G|--------2--|-----------0--------|-----0--------------||*-----0--------------|
D|-----2-----|--------2-----------|--------2-----------||*-----------2--------|
A|--0--------|-----2--------------|--------------------||---------------------|
E|-----------|--0-----------------|-----------0--------||---0-----------------|


    E  E  E  E  E   E     E  E  E  E  E  E     E  E  E  E  E  E     
e|--7-----------7--10--|--5-----------------|--0-----------0--2---||
B|---------------------|--------7-----8--7--|--------2------------||
G|--------0------------|-----7--------------|-----2--------------*||
D|-----0---------------|--0--------0--------|-----------2--------*||
A|---------------------|--------------------|--0------------------||
E|--3--------3---------|--------------------|---------------------||


     E   E   E  E   E   E      E  E   E  E   E   E      E  E   E  E   E  E   
e|--12-------------10--14--|--12------------12--14--|--15-----14-----12-----|
B|-------------------------|---------10-------------|-----------------------|
G|-------------------------|------9-----------------|------0------0------0--|
D|----------10-------------|------------------------|-----------------------|
A|------10-----------------|---0---------0----------|-----------------------|
E|---8----------8----------|------------------------|---0-------------------|


     E  E  E  E  E  E     E  E  E  E  E  E     E  E  E  E  E  E   
e|--10-----8-----7-----|--5--------------7--|--5-----------3--2--|
B|---------------------|--------7-----8-----|--------3-----------|
G|---------------------|-----7--------------|-----2--------------|
D|------0-----0-----0--|--0--------0--------|--0--------0--------|
A|---------------------|--------------------|--------------------|
E|---3-----------------|--------------------|--------------------|


    E  E  E  E  E  E     E  E  E  E  E  E     E  E  E  E  E  E   
e|--0-----------------|--0-----------3--2--|--0-----------------|
B|-----------2--------|-----2--------------|--------------0-----|
G|--------2-----2-----|--------2-----------|-----------2-----2--|
D|-----2-----------2--|-----------2--------|--------2-----------|
A|--0-----------------|--------------------|-----2--------------|
E|--------------------|--------------------|--0-----------------|


    ^                                                                        
    Q.     E  E  E       E  E  E  E  E  E  E  E     E  E  E  E  E  E  E  E   
e|------------------||------------------------0--|--2-----------------2--5--|
B|------------0--2--||---3-----------------3-----|--------3-----3-----------|
G|--1------L--------||*--------4-----4-----------|-----2-----2-----2--------|
D|--2------L--------||*-----4-----4-----4--------|--0-----------------------|
A|--2------L--------||---2-----------------------|--------------------------|
E|--0------L--------||---------------------------|--------------------------|


    E  E  E  E  E  S  S E  E     E  E  E  E  E  E  E  E     
e|--0--------------2p-0-------|---------------------------||
B|----------------------3--2--|--0-----------------0--2---||
G|--------2-----2-------------|-----------1--------------*||
D|-----2-----2----------------|--------2-----2-----------*||
A|--0-------------------------|-----2-----------2---------||
E|----------------------------|--0------------------------||


    E  E  E  E  E  E  E  E     E  E  E  E  E  E  E  E      E  E  E  E  E  E   
e|--7-----------------5--9--|--7-----------------7--9--|--10-----9-----7-----|
B|--------------------------|-----------0--------------|---------------------|
G|--------0-----0-----------|--------------------------|------7-----7-----7--|
D|-----0-----0-----0--------|--------6-----6-----------|---------------------|
A|--------------------------|-----7-----------7--------|---------------------|
E|--3-----------------------|--0-----------------------|---7-----------------|


    E  E  E  E  E  E     E  E  E  E  E  E  E  E     E  E  E  E  E  E  E  E   
e|--5-----3-----2-----|--0--------------------2--|--0-----------------------|
B|--------------------|-----------2--------3-----|-----------2--------3--2--|
G|-----2-----2-----2--|--------2-----2-----------|--------2-----2-----------|
D|--0-----------------|-----2-----------2--------|-----2-----------2--------|
A|--------------------|--0-----------------------|--0-----------------------|
E|--------------------|--------------------------|--------------------------|


    E  E  E  E  E  E  E  E     E  E  E  E  E  E     E  E  E  E  E  E   
e|--------------------------|--------------------|--------------------|
B|--0-----------------------|--0-----------3--2--|-----------5--------|
G|-----------1--------------|-----1--------------|--4-----4-----4-----|
D|--------2-----2-----------|--------2-----------|-----4-----------4--|
A|-----2-----------2-----2--|-----------2--------|--2-----------------|
E|--0-----------------0-----|--------------------|--------------------|


    E  E  E  E  E  E     E  E  E  E  E  E     E  E  E  E  E  E   
e|--------------------|--------------2-----|--2-----------------|
B|--4-----------------|-----------3-----3--|-----2--------------|
G|-----4-----------4--|--------4-----------|--------4-----------|
D|--------4-----4-----|-----4--------------|-----------4-----4--|
A|-----------2--------|--2-----------------|--2-----------2-----|
E|--------------------|--------------------|--------------------|


    E  E  E  E  E  E     E  E  E  E  E  E     E  E  E  E  E  E   
e|--------------0-----|--0-----------------|--------------0-----|
B|-----------2-----2--|-----2--------------|-----------0-----0--|
G|--------2-----------|--------2-----------|--------1-----------|
D|-----2--------------|-----------2-----2--|-----2--------------|
A|--0-----------------|--0-----------0-----|--------------------|
E|--------------------|--------------------|--0-----------------|


    E  E  E  E  E  E     E  E  E  E  E  E     E  E  E  E  E  E   
e|--0-----------------|--------------------|--------------------|
B|-----0-----------0--|-----------0--------|--------------0--2--|
G|--------1-----1-----|--------0-----0-----|--------2-----------|
D|-----------2--------|-----0-----------0--|-----2-----2--------|
A|--------------------|--------------------|--0-----------------|
E|--0-----------------|--3-----------------|--------------------|


     E  E  E  E  E  E     E  E  E  E  E  E     E  E  E  S  S E  E   
e|------------------0--|--2-----------2--5--|--0--------2p-0-------|
B|---3-----------3-----|--------------------|----------------3--2--|
G|*--------4-----------|--------2-----------|--------0-------------|
D|*-----4-----4--------|-----2-----2--------|-----0----------------|
A|---2-----------------|--0-----------------|----------------------|
E|---------------------|--------------------|--3-------------------|


    E  E  E  E  E  E       E  E  E  E  E  E     E  E  E  E  E  E   
e|---------------------||--7-----------5--9--|--7-----5-----7--9--|
B|--0-----------0--2---||--------------------|--------------------|
G|--------2-----------*||--------0-----------|-----6-----6--------|
D|-----2-----2--------*||-----0-----0--------|--------------------|
A|--0------------------||--------------------|--0-----------------|
E|---------------------||--3-----------------|--------------------|


     E  E  E  E  E  E     E  E  E  E  E  E     E  E  E  E  E  E   
e|--10-----------------|--9-----------------|--7-----5--------2--|
B|---------7-----7-----|--------5-----5-----|--------------------|
G|------7-----7-----7--|-----6-----6-----6--|--------------0-----|
D|---------------------|--------------------|-----0-----0--------|
A|---------------------|--0-----------------|--------------------|
E|---7-----------------|--------------------|--3-----------------|


    E  E  E  E  E  E     E  E  E  E  E  E     E  E  E  E  E  E   
e|--0--------------0--|--------------------|--------------------|
B|--------------3-----|--2-----------3--2--|--0--------0--------|
G|--------2-----------|--------2-----------|--------0-----0-----|
D|-----2-----2--------|-----2-----2--------|-----0-----------0--|
A|--0-----------------|--0-----------------|--------------------|
E|--------------------|--------------------|--3-----------------|


    E  E  E  E  E  E       E  E  E  E  E  E     E  E  E  E  E  E   
e|--------------------||---------------------|--------------------|
B|--------------3--2--||---0--------0--------|-----------0--------|
G|--------2-----------||*--------4-----4-----|--------4-----4-----|
D|-----2-----2--------||*-----4-----------4--|-----4-----------4--|
A|--0-----------------||---2-----------------|--------------------|
E|--------------------||---------------------|--0-----------------|


    E  E  E  E  E  E     E  E  E  E  E  E     
e|--------------------|---------------------||
B|-----------0--------|-----------0---------||
G|--------4-----4-----|--------4-----4-----*||
D|-----4-----------4--|-----4-----------4--*||
A|--------------------|--0------------------||
E|--3-----------------|---------------------||


      E    S   S   S   S   E    S   S   S   S   
e|---(x)--(x)-(x)-(x)-(x)-(x)--(x)-(x)-(x)-(x)-|
B|----0----0---0---0---0---0----0---0---0---0--|
G|*---4----4---4---4---4---4----4---4---4---4--|
D|*---4----4---4---4---4---4----4---4---4---4--|
A|----2----2---2---2---2---2----2---2---2---2--|
E|---(x)--(x)-(x)-(x)-(x)-(x)--(x)-(x)-(x)-(x)-|


     E    S   S   S   S   E    S   S   S   S   
e|--(x)--(x)-(x)-(x)-(x)-(x)--(x)-(x)-(x)-(x)-|
B|---0----0---0---0---0---0----0---0---0---0--|
G|---4----4---4---4---4---4----4---4---4---4--|
D|---4----4---4---4---4---4----4---4---4---4--|
A|---2----2---2---2---2---2----2---2---2---2--|
E|---0----0---0---0---0---0----0---0---0---0--|


     E    S   S   S   S   E    S   S   S   S   
e|--(x)--(x)-(x)-(x)-(x)-(x)--(x)-(x)-(x)-(x)-|
B|---0----0---0---0---0---0----0---0---0---0--|
G|---4----4---4---4---4---4----4---4---4---4--|
D|---4----4---4---4---4---4----4---4---4---4--|
A|---2----2---2---2---2---2----2---2---2---2--|
E|---3----3---3---3---3---3----3---3---3---3--|


     E    S   S   S   S   E    S   S   S   S        Q.      Q    S  S  
e|--(x)--(x)-(x)-(x)-(x)-(x)--(x)-(x)-(x)-(x)--||--(x)----------------|
B|---0----0---0---0---0---0----0---0---0---0---||---0-------L----3p-2-|
G|---4----4---4---4---4---4----4---4---4---4--*||---4-------L---------|
D|---4----4---4---4---4---4----4---4---4---4--*||---4-------L---------|
A|---0----0---0---0---0---0----0---0---0---0---||---0-------L---------|
E|--(x)--(x)-(x)-(x)-(x)-(x)--(x)-(x)-(x)-(x)--||--(x)----------------|


      E    S   S   S   S   E    S   S   S   S   
e|---(x)--(x)-(x)-(x)-(x)-(x)--(x)-(x)-(x)-(x)-|
B|----3----3---3---3---2---3----3---3---2---3--|
G|*---0----0---0---0---0---0----0---0---0---0--|
D|*---0----0---0---0---0---0----0---0---0---0--|
A|----2----2---2---2---2--(x)--(x)-(x)-(x)-(x)-|
E|----0----0---0---0---0---3----3---3---3---3--|


     E    E    E    E    S   S   S   S   
e|--(x)--(x)--(x)--(x)--(x)-(x)-(x)-(x)-|
B|---5----3----2----0----0---0---0---0--|
G|---2----2----2----0----0---0---0---2--|
D|---2----2----2----2----2---2---2---2--|
A|---0----0----0----2----2---2---2---2--|
E|--(x)--(x)--(x)---0----0---0---0---0--|


     E    S   S   S   S   E    S   S   S   S   
e|--(x)--(x)-(x)-(x)-(x)-(x)--(x)-(x)-(x)-(x)-|
B|---x----x---x---x---x---0----0---0---0---0--|
G|---4----4---4---4---2---0----0---0---2---0--|
D|---4----4---4---4---4---0----0---0---0---0--|
A|---2----2---2---2---2--(x)--(x)-(x)-(x)-(x)-|
E|--(x)--(x)-(x)-(x)-(x)--3----3---3---3---3--|


     E    E    E    E    S   S   S   S        E    E    E    
e|--(x)--(x)--(x)--(x)--(x)-(x)-(x)-(x)--||--(x)--(x)--(x)--|
B|---2----3----2----0----0---0---0---2---||---2----3----2---|
G|---2----2----2----0----0---0---0---0--*||---2----2----2---|
D|---2----2----2----2----2---2---2---2--*||---2----2----2---|
A|---0----0----0----2----2---2---2---2---||---0----0----0---|
E|--(x)--(x)--(x)---0----0---0---0---0---||--(x)--(x)--(x)--|


     E    S   S   S   S   E    S   S   S   S     E  S S S S E  E  E   
e|--(x)--(x)-(x)-(x)-(x)-(x)--(x)-(x)-(x)-(x)-|--0--0-0-0-0-0--0--2--|
B|---0----0---0---0---0---0----0---0---0---0--|--0--0-0-0-0-0--0--0--|
G|---0----0---0---0---0---0----0---0---0---0--|--0--0-0-0-0-0--0--0--|
D|---2----2---2---2---2---2----2---2---2---2--|--2--2-2-2-2-2--2--2--|
A|---2----2---2---2---2---2----2---2---2---2--|--2--2-2-2-2-2--2--2--|
E|---0----0---0---0---0---0----0---0---0---0--|--0--0-0-0-0-0--------|


     E  S S S S E  E  E      E    S   S   S   S   E   E   E   
e|---3--3-3-3-3-3--3--5--|---7----7---7---7---7---7---7--10--|
B|---0--0-0-0-0-0--0--0--|---0----0---0---0---0---0---0---0--|
G|*--0--0-0-0-0-0--0--0--|---0----0---0---0---0---0---0---0--|
D|*--2--2-2-2-2-2--------|---0----0---0---0---0---0---0---0--|
A|---2--2-2-2-2-2--------|--(x)--(x)-(x)-(x)-(x)-(x)---------|
E|---0--0-0-0-0-0--------|---3----3---3---3---3---3----------|


    E  S S S S E  E  E     E  S S S S E  E  E     
e|--5--5-5-5-5-5--5--5--|--0--0-0-0-0-0--0--2---||
B|--7--7-7-7-7-7--8--7--|--2--2-2-2-2-2--2--0---||
G|--7--7-7-7-7-7--7--7--|--2--2-2-2-2-2--2--2--*||
D|--0--0-0-0-0-0--0--0--|--2--2-2-2-2-2--2--2--*||
A|----------------------|--0--0-0-0-0-0--0--0---||
E|----------------------|-----------------------||


     E    S   S   S   S   E    E    E       E   S  S  S  S  E   E   E   
e|--12---12--12--12--12--12---10---14---|--12--12-12-12-12-12--12--14--|
B|--(x)--(x)-(x)-(x)-(x)-(x)--(x)--(x)--|--10--10-10-10-10-10--10---0--|
G|---0----0---0---0---0---0----0----0---|---9---9--9--9--9--9---9------|
D|--10---10--10--10--10--10---10--------|--11--11-11-11-11-11--11------|
A|--10---10--10--10--10--10---10--------|---0---0--0--0--0--0---0------|
E|---8----8---8---8---8---8-------------|------------------------------|


     E    E    E    E    E    E       E    S   S   E    E    E    E    
e|--15--------14--------12--------|--10------------8---------7--------|
B|---0----0----0----0----0----0---|---0----0---0---0----0----0----0---|
G|---0----0----0----0----0----0---|---0----0---0---0----0----0----0---|
D|---9----9----9----9----9----9---|---0----0---0---0----0----0----0---|
A|--(x)--(x)--(x)--(x)--(x)--(x)--|--(x)--(x)-(x)-(x)--(x)--(x)--(x)--|
E|---0----0----0----0----0----0---|---3----3---3---3----3----3----3---|


    E  S S S S E  E  E     E  S S S S E  E  E     E  S S S S E  S S S S  
e|--5--5-5-5-5-5--5--7--|--5--5-5-5-5-5--3--2--|--0--0-0-0-0-0--0-0-0-0-|
B|--7--7-7-7-7-7--8--8--|--3--3-3-3-3-3--3--3--|--2--2-2-2-2-2--2-2-2-2-|
G|--7--7-7-7-7-7--7--7--|--2--2-2-2-2-2--2--2--|--2--2-2-2-2-2--2-2-2-2-|
D|--0--0-0-0-0-0--0--0--|--0--0-0-0-0-0--0--0--|--2--2-2-2-2-2--2-2-2-2-|
A|----------------------|----------------------|--0--0-0-0-0-0--0-0-0-0-|
E|----------------------|----------------------|------------------------|


                                                    ^             
    E  S S S S E  E  E     E  S S S S E  S S S S    H.            
e|--0--0-0-0-0-0--3--2--|--0--0-0-0-0-0--0-0-0-0-|--0------------|
B|--2--2-2-2-2-2--2--2--|--0--0-0-0-0-0--0-0-0-0-|--0------------|
G|--2--2-2-2-2-2--2--2--|--2--2-2-2-2-2--2-2-2-2-|--1------------|
D|--2--2-2-2-2-2--2--2--|--2--2-2-2-2-2--2-2-2-2-|--2------------|
A|--0--0-0-0-0-0--0--0--|--2--2-2-2-2-2--2-2-2-2-|--2------------|
E|--0--0-0-0-0-0--0--0--|--0--0-0-0-0-0--0-0-0-0-|--0------------|


    H.             
e|--L------------||
B|--L------------||
G|--L------------||
D|--L------------||
A|--L------------||
E|--L------------||




Duration Legend
---------------
W - whole
H - half
Q - quarter
E - 8th
S - 16th
T - 32nd
X - 64th
. - note dotted
|-n-|  - n-tuplets


************************************

L - tied note
x - dead note
(n) - ghost note
h - hammer on
p - pull off
^ - brush up

************************************
Suggest correction
comments
print report bad tab
4 comments total. Showing first comments.
0 reply
Abhijnan11 10 wrote on June 7 2013, 04:49 am

Excellent!!!!

0 reply
Deeryav 314 wrote on December 8 2013, 07:09 am

I really like it

0 reply
christopher.bye 24 wrote on February 18 2014, 01:13 pm, edited at 02:55 pm

i found the same tab on alphatab 6.

guest
You may want to rate the tab now too:
select rating
Please do not post tabs as comments. Select "correction" instead!