Oops, an error
Loading. Please wait.

The Dragonborn Comes tab

version 2
version 2

Whole song

  • Have both bass line and melody. Fingerstyle, and capo 2.
613 views 3 this week
no commentswrite comment
1 2 3 4 5
1 last vote to show rating
add to favorites
×
Save as Personal and add changes to this tab that will be seen only by you. Learn more ›
×
You can save this tab as Personal to edit and correct it or add notes. All changes will be seen only by you. Learn more »
launch autoscroll
font size
0
reset
how to read this tab
guitar tuner
edit
Autoscroll
slow
fast
+/-
esc
set tempo
stop
Author
Difficulty
First of all I must say that this is the first time I make this and I couldn't
find the 'perfect' ending so comment the mistakes you find. 

THIS VERSION OF THE SONG TABBING GOES ALONG WITH THE VOICE.

I wrote the lyrics so it can be easier to follow.
-------------------------------------------------------------------------------
                           The Dragonborn Comes
-------------------------------------------------------------------------------
** h   hammer-on ** (it is not necessary but I think it sound good)
Tuning: Standard
No capo needed.



        Our     he-ro    our      he-ro    claims a   wa-rri-or's  heart
e|---------------------------------------------------------------------------|
B|---------------------------------------------------------------------------|
G|---------------------------------0-0-------0h2-----------------------------|
D|---------------2-2------4----------------------------4--2--0-------2-------|
A|-------2-------------------------------------------------------------------|
E|---------------------------------------------------------------------------|


         I     tell you    I     tell you   the Dra-gon-born comes
e|---------------------------------------------------------------------------|
B|---------------------------------------------------------------------------|
G|---------------------------------0--0------0-------------------------------|
D|--------------2----2------4---------------------4---2---0-----2------------|
A|-------2-------------------------------------------------------------------|
E|---------------------------------------------------------------------------|


        With a voice  wiel-ding   po-wer   of the    an-cient nord art
e|---------------------------------------------------------------------------|
B|---------------------------------------------------------------------------|
G|-------4---4---4-----------------0--2-----2--2-----------------------------|
D|----------------------2---2------------------------4---2-----0----2--------|
A|---------------------------------------------------------------------------|
E|---------------------------------------------------------------------------|


        Be-lieve       be-lieve       the   Dra-gon-born comes
e|---------------------------------------------------------------------------|
B|---------------------------------------------------------------------------|
G|--------------------------0----------0-------------------------------------|
D|------------2--------4----------------------4---2---0-----2----------------|
A|-------2-------------------------------------------------------------------|
E|---------------------------------------------------------------------------|


        It's an end     to the   e-vil     of all Sky-rim's foes
e|---------------------------------------------------------------------------|
B|---------------------------------------------------------------------------|
G|-------4---4---4---------------0--2------2---------------------------------|
D|-----------------------2---2-----------------4----5---7-----2--------------|
A|---------------------------------------------------------------------------|
E|---------------------------------------------------------------------------|


        Be-ware        be-ware       the   Dra-gon-born comes
e|---------------------------------------------------------------------------|
B|---------------------------------------------------------------------------|
G|--------------------------0----------0-------------------------------------|
D|------------2--------4--------------------4---2---0-----2------------------|
A|-------2-------------------------------------------------------------------|
E|---------------------------------------------------------------------------|


        For the dark-ness has   passed   and the      le-gend yet grows
e|---------------------------------------------------------------------------|
B|---------------------------------------------------------------------------|
G|-------4---4---4-----------------2------0---0------------0---2-------------|
D|---------------------2---2---------------------------4------------2--------|
A|---------------------------------------------------------------------------|
E|---------------------------------------------------------------------------|


      You'll  know       you'll  know      the  Dra-gon-born's come
e|---------------------------------------------------------------------------|
B|---------------------------------------------------------------------------|
G|-------4-----4--------------------2-------2--------------------------------|
D|---------------5----------5-----5--------------4----2----0-----2-----------|
A|---------------------------------------------------------------------------|
E|---------------------------------------------------------------------------|

            
            
Suggest correction
Creating personal tab
Creating personal tab
You can edit any tab online and save it as your Personal.

You can edit, replace or remove any tab part or add personal notes – all changes will be seen only by you.

Personal tabs can be accessed anytime from any device, even offline.
Learn more »
Give kudos to tab author, rate the tab!
1 2 3 4 5
comments
print report bad tab
guest
You may want to rate the tab now too:
select rating
Wanna post a correction for this tab? Suggest correction