Oops, an error
Loading. Please wait.

Wings Of Kynareth Tab

version 1
version 1

Whole song

Interactive

2,593 views 3 this week
no commentswrite comment
1 2 3 4 5
excellent!
x 2
add to favorites
launch autoscroll
font size
0
reset
how to read this tab
guitar tuner
Tab Pro tools
  • play this tab
  • loop segment
  • change instrument
  • show fretboard
  • metronome
Autoscroll
slow
fast
+/-
esc
set tempo
stop
Contributor
Difficulty
intermediate
Artist: Jeremy Soule
Album: The Elder Scrolls IV: Oblivion
Song: Wings of Kynareth
Tabbed by: A Dead Fly


Intro (0:00 - 0:24)
e|--------------5-|----------------|----------5-----|----------------|
B|-6p5------6-----|-6---5---6------|-6p5---------5--|-------------5--|
G|------7---------|-------------7--|------7---------|-5--------------|
D|------0---------|-----3----------|----------------|-----5----------|
A|----------------|----------------|------8---------|----------------|
E|----------------|----------------|----------------|----------------|

e|---------5------|-8---5----------|-----5---8---5--|-----5----------|
B|-----6-------8--|---------6---8--|-5--------------|-6--------------|
G|-7--------------|-------------0--|----------------|----------------|
D|-----0----------|----------------|-----7----------|-----7----------|
A|----------------|-7---8----------|----------------|----------------|
E|----------------|----------------|----------------|----------------|

e|-8-------8------|---------5------|-5-------5------|----------------|
B|-----6-------6--|-8---6-------6--|-----6-------6--|-8-------5------|
G|-7--------------|-5--------------|-5--------------|-------------7--|
D|----------------|---------7------|----------------|-7-------7------|
A|----------------|----------------|----------------|----------------|
E|----------------|----------------|----------------|----------------|

e|-----5----------|----------------|----------------|----------------|
B|-6-------6------|-5--------------|-5-------3------|-5--------3-----|
G|-------------7--|-----5---7------|-----5----------|------5---------|
D|-0--------------|-3--------------|-2-------0------|-2--------0-----|
A|-------------7--|----------------|----------------|----------------|
E|----------------|----------------|----------------|----------------|

Let last notes ring out for a little bit and then the first main theme:
(0:28 - 0:48)

e|-----5----------|-----5-------3--|----------------|-----3-------1--|
B|/3--------------|-3-------3------|-1--------------|-1-------1------|
G|----------------|----------------|----------------|----------------|
D|-0--------------|----------------|----------------|----------------|
A|----------------|-------------3--|----------------|-------------0--|
E|----------------|----------------|----------------|----------------|

e|----------------|-1-------0------|----------------|-------------5--|
B|-----1----------|----------------|-1--------------|---------6------|
G|-2--------------|-----2-------2--|----------------|---------7------|
D|----------------|----------------|----------------|---------0------|
A|----------------|---------3------|----------------|----------------|
E|----------------|----------------|----------------|----------------|

e|----------------|-5--------------|-8--------------|----------------|
B|----------------|---------8------|----------------|-----8---6------|
G|-------------7--|-----7-------7--|----------------|-5--------------|
D|----------------|----------------|----------------|-------------7--|
A|----------------|----------------|----------------|---------0------|
E|----------------|---------8------|----------------|----------------|

e|-5--------------|----------------|----------------|
B|-6--------------|-----6---5------|----------------|
G|----------------|----------------|-5--------------|
D|----------------|-7-----------7--|----------------|
A|----------------|----------------|----------------|
E|----------------|---------3------|----------------|

Then you immediately play the intro again one time (0:48 - 1:10)

After you've played the intro begin playing the second main theme:
(1:11 - 1:36)

e|----------------|----------------|
B|-----3*------3*-|-----3*------3--|
G|----------------|----------------|
D|----------------|----------------|
A|----------------|----------------|
E|----------------|----------------|

e|-----5----------|-------------5--|-----8----------|----------------|
B|-3--------------|----------------|-8--------------|---------8---6--|
G|----------------|---------7------|----------------|-----5----------|
D|---------0------|-3-------0------|----------------|----------------|
A|----------------|----------------|----------------|----------------|
E|----------------|----------------|---------8------|-8--------------|

e|----------------|----------------|----------------|----------------|
B|----------------|-------------6--|-5--------------|----------------|
G|----------------|----------------|---------5------|-------------5--|
D|-7--------------|---------7------|-----7----------|---------7------|
A|---------0------|-0--------------|---------3------|-3--------------|
E|----------------|----------------|----------------|----------------|

e|-----5---5------|-------------5--|-----8---8------|----------------|
B|----------------|----------------|-8--------------|-------------8--|
G|-7--------------|---------7------|----------------|---------5------|
D|---------0------|----------------|----------------|----------------|
A|----------------|----------------|---------7------|----------------|
E|----------------|----------------|----------------|----------------|

e|----------------|----------------|----------------|----------------|
B|-6--------------|-------------6--|-5--------------|----------------|
G|---------5------|----------------|---------5------|----------------|
D|-----7---3------|---------7------|-----7---5------|----------------|
A|----------------|----------------|----------------|----------------|
E|----------------|----------------|----------------|----------------|

Then play the intro again (1:36 - 1:58) one time, only change the first bar from:

e|-------------5--|                |-------------5--|
B|-6p5------6-----|                |-6-------6------|
G|------7---------|       To       |-----7----------|
D|------0---------|                |-----0----------|
A|----------------|                |----------------|
E|----------------|                |----------------|

Then play the third main theme:
(1:58 - 2:19)

e|-----5----------|-------------5--|-3--------------|---------3---1--|
B|/3--------------|---------3------|-----1----------|-----1----------|
G|----------------|----------------|----------------|----------------|
D|-0--------------|----------------|----------------|----------------|
A|----------------|----------------|-3--------------|----------------|
E|----------------|----------------|----------------|----------------|

e|----------------|-----1---0------|----------------|-------------5--|
B|----------------|----------------|----------------|----------------|
G|-2--------------|-2-----------2--|-5--------------|-----5---7------|
D|----------------|----------------|----------------|-7-------0------|
A|-0--------------|----------------|-3--------------|----------------|
E|----------------|----------------|----------------|----------------|

e|-5--------------|-----5-------8--|-8--------------|-5--------------|
B|----------------|---------8------|----------------|----------------|
G|----------------|-7--------------|----------------|----------------|
D|----------------|----------------|----------------|----------------|
A|----------------|----------------|----------------|-0--------------|
E|----------------|---------8------|----------------|----------------|

e|----------------|-5--------------|----------------|
B|----------------|----------------|----------------|
G|----------------|----------------|----------------|
D|----------------|----------------|----------------|
A|----------------|-0--------------|----------------|
E|----------------|----------------|----------------|

Then play the bridge/ outro:
(2:20 - End)

e|----------------|----------------|----------------|----------------|
B|-8---6---8------|-6p5h6-------8--|----------------|-5---8---6---8--|
G|----------------|---------7------|-------------7--|----------------|
D|----------------|----------------|----------------|----------------|
A|----------------|----------------|----------------|----------------|
E|----------------|----------------|----------------|----------------|

e|----------------|---------5------|----------------|------8---------|
B|------------6p5h|-6--------------|----------------|--8-------------|
G|----------------|-----7----------|----------------|----------------|
D|----------------|----------------|----------------|----------------|
A|----------------|----------------|----------------|----------------|
E|----------------|----------------|----------------|----------------|

e|----------------|-5--------------|-5--------------|----------------|
B|-8-----------8--|----------------|----------------|----------------|
G|----------------|----------------|---------7------|----------------|
D|----------------|----------------|----------------|----------------|
A|----------------|----------------|----------------|----------------|
E|----------------|----------------|----------------|----------------|

e|----------------|----------------|----------------|----------------|
B|-6---5----------|----------------|-6---5---6------|---------6------|
G|---------7------|----------------|----------------|-------------7--|
D|----------------|----------------|----------------|----------------|
A|----------------|----------------|----------------|----------------|
E|----------------|----------------|----------------|----------------|

e|----------------|----------------|----------------|----------------|
B|-5--------------|-----6---5---6--|-------------5--|----------------|
G|----------------|-5--------------|---------5------|-----5-------7--|
D|----------------|----------------|----------------|----------------|
A|----------------|----------------|----------------|----------------|
E|----------------|----------------|----------------|----------------|

e|-5--------------|-5-------8------|-------------5--|-------------5--|
B|-------------6--|-----8----------|----------------|---------6------|
G|----------------|----------------|---------7------|----------------|
D|----------------|----------------|----------------|----------------|
A|----------------|----------------|----------------|----------------|
E|----------------|----------------|----------------|----------------|

e|-------------8--|----------------|----------------|-----5----------|
B|-8--------------|----------------|---------5------|-6-------6------|
G|----------------|----------------|-------------7--|-------------7--|
D|----------------|----------------|----------------|----------------|
A|----------------|----------------|----------------|----------------|
E|----------------|----------------|----------------|----------------|

Slow the tempo down towards the end
e|----------------|-----5----------|----------------|-----5----------|
B|-5-------5------|-6-------6------|-5-------5------|-6-------6------|
G|-------------7--|-------------7--|-------------7--|-------------7--|
D|----------------|----------------|----------------|----------------|
A|----------------|----------------|----------------|----------------|
E|----------------|----------------|----------------|----------------|

e|----------------|----------------|
B|-5--------------|----------------|
G|-----5-------5--|-7--------------|
D|---------7------|----------------|
A|----------------|----------------|
E|----------------|----------------|

The End

Email me at azlizard13@yahoo.com 

Please give me credit if you use this tab for a video

This is my favorite song off of this soundtrack :)

/ Slide up
* Harp Harmonic
p Pulloff
h Hammeron
comments
We did not receive enough feedback on this tab! Please rate:
print report bad tab
1 2 3 4 5
I want to post or [tab]
guest
You may want to rate the tab now too:
select rating
Please do not post tabs as comments. Select "correction" instead!