Oops, an error
Loading. Please wait.

Wala Nang Iba tab

133 views 9 this week
no commentswrite comment
1 2 3 4 5
3 more votes to show rating
add to favorites
×
Save as Personal and add changes to this tab that will be seen only by you. Learn more ›
×
You can save this tab as Personal to edit and correct it or add notes. All changes will be seen only by you. Learn more »
launch autoscroll
font size
0
reset
how to read this tab
guitar tuner
edit
Autoscroll
slow
fast
+/-
esc
set tempo
stop
I'm not entirely sure these are the exact chords of Jeric Medina's Wala Nang Iba but I included it anyway. :)


[Intro]

AM7 G#m7 C#m7 Badd11

e|---------------------------------------------------------------------------|
B|---------------------5---4---4---------------------5-----4-----------------|
G|-----6---4-----4-----4---4--4-4------6---4-----4---4-----4-----------------|
D|-----6---4---4-4-----6---2-----------6---4---4-4---6-----2-----------------|
A|-------------------4-----2-2-----------------------4-----2-----------------|
E|---5-----4-4-----------------------5-----4-4-------------------------------|


[Verse 1]

AM7 G#m7 C#m7 Badd11

Hindi naman ako bolero (tulad ng iba)
Ikaw lang ang nasa isip ko

e|---------------------------------------------------------------------------|
B|---------------------5---4---4---------------------5-----4-----------------|
G|-----6---4-----4-----4---4--4-4------6---4-----4---4-----4-----------------|
D|-----6---4---4-4-----6---2-----------6---4---4-4---6-----2-----------------|
A|-------------------4-----2-2-----------------------4-----2-----------------|
E|---5-----4-4-----------------------5-----4-4-------------------------------|

Alam mo naman ang sinasabi ko,
ikaw ang laman ng puso kong ito
Nasabi ko ba sa'yo na

e|---------------------------------------------------------------------------|
B|---------------------5---4---4---------------------5-----4-----------------|
G|-----6---4-----4-----4---4--4-4------6---4-----4---4-----4-----------------|
D|-----6---4---4-4-----6---2-----------6---4---4-4---6-----2-----------------|
A|-------------------4-----2-2-----------------------4-----2-----------------|
E|---5-----4-4-----------------------5-----4-4-------------------------------|


[Verse 2]

AM7 G#m7 C#m7 Badd11

T'wing ikaw ay nakikita
Nawawala mga problema ko

e|---------------------------------------------------------------------------|
B|---------------------5---4---4---------------------5-----4-----------------|
G|-----6---4-----4-----4---4--4-4------6---4-----4---4-----4-----------------|
D|-----6---4---4-4-----6---2-----------6---4---4-4---6-----2-----------------|
A|-------------------4-----2-2-----------------------4-----2-----------------|
E|---5-----4-4-----------------------5-----4-4-------------------------------|

Wala ka na bang ibang ginagawa?
Gusto lang naman kitang makasama
Sinasabi ko sa'yo na

e|---------------------------------------------------------------------------|
B|---------------------5---4---4---------------------5-----4-----------------|
G|-----6---4-----4-----4---4--4-4------6---4-----4---4-----4-----------------|
D|-----6---4---4-4-----6---2-----------6---4---4-4---6-----2-----------------|
A|-------------------4-----2-2-----------------------4-----2-----------------|
E|---5-----4-4-----------------------5-----4-4-------------------------------|


[Pre-Chorus]

F#m7 G#m7 AM7 F#m/B

Ako'y magiging tunay
At ito'y pang habambuhay

e|---------------------------------------------------------------------------|
B|-----------0-----------------0-----------------0-----------------0---------|
G|-------2-----2---2-------2-----2---2-------4-----4---4-------4-----4---4---|
D|-----2---2-----2-------2---2-----2-------4---4-----4-------4---4-----4-----|
A|---------------------------------------------------------------------------|
E|---2-----------------2-----------------4-----------------4-----------------|

'Wag ka nang mangangamba
Ooooohhhh

e|------------------------------------------------------7--------------------|
B|-----------5-----------------5-----------------7------7--------------------|
G|-------6-----6---6-------6-----6---6-------6-----6----6--------------------|
D|-----6---6-----6-------6---6-----6-------7---7-----7--7--------------------|
A|---------------------------------------------------------------------------|
E|---5-----------------5-----------------7--------------7--------------------|


[Chorus]

E/G# Esus4/A Esus4/C# Esus2/B
E/G# Esus4/A Esus2/B Esus2/B
E/G# Esus4/A B5 D#/C
F#m7 G#m7 AM7 F#m/B

Ikaw parin ang hinahanap
Ikaw parin ang pinapangarap

e|---------------------------------------------------------------------------|
B|-------5-------5-------5-------5-------5-------5-------5-------5-----------|
G|-------4-------4-------4-------4-------4-------4-------4-------4-----------|
D|-----2-------2-------2-------4-------2-------2-------4-------4-------------|
A|-----------0-------4-------2---------------0-------2-------2---------------|
E|---4-------------------------------4---------------------------------------|

'Wag ka nang magalala, maniwala ka
Ikaw lang at wala nang iba

e|---------------------------------------------------------------------------|
B|-------5-------5-------4-----------5---7-----------------------------------|
G|-------4-------4---4---2---2---4---6---6-----------------------------------|
D|-----2-------2-----4---4---2---4---6---7-----------------------------------|
A|-----------0-------2---3---------------------------------------------------|
E|---4-----------------------2---4---5---7-----------------------------------|


[Verse 3]

AM7 G#m7 C#m7 Badd11

Hindi nga natin inakala
Na ako'y para sa'yo

e|-------------------7---2-------------------4---2---------------------------|
B|-------------------5---4-------------------5---4---------------------------|
G|-------6-------4---4---4-------6-------4---4---4---------------------------|
D|-----6-------4-----6---2-----6-------4-----6---2---------------------------|
A|-------------------4---2-------------------4---2---------------------------|
E|---5-------4---------------5-------4---------------------------------------|

Sa'yo lang tumibok ang puso ko
Ikaw ang kabiyak ng buhay kong ito
Sinasabi ko sa'yo na

e|---------------------------------------------------------------------------|
B|---------------------5---4---4---------------------5-----4-----------------|
G|-----6---4-----4-----4---4--4-4------6---4-----4---4-----4-----------------|
D|-----6---4---4-4-----6---2-----------6---4---4-4---6-----2-----------------|
A|-------------------4-----2-2-----------------------4-----2-----------------|
E|---5-----4-4-----------------------5-----4-4-------------------------------|


[Pre-Chorus]

F#m7 G#m7 AM7 F#m/B

Ako'y magiging tunay
At ito'y pang habambuhay

e|---------------------------------------------------------------------------|
B|-----------0-----------------0-----------------0-----------------0---------|
G|-------2-----2---2-------2-----2---2-------4-----4---4-------4-----4---4---|
D|-----2---2-----2-------2---2-----2-------4---4-----4-------4---4-----4-----|
A|---------------------------------------------------------------------------|
E|---2-----------------2-----------------4-----------------4-----------------|

'Wag ka nang mangangamba
Ooooohhhh

e|------------------------------------------------------7--------------------|
B|-----------5-----------------5-----------------7------7--------------------|
G|-------6-----6---6-------6-----6---6-------6-----6----6--------------------|
D|-----6---6-----6-------6---6-----6-------7---7-----7--7--------------------|
A|---------------------------------------------------------------------------|
E|---5-----------------5-----------------7--------------7--------------------|


[Chorus]

E/G# Esus4/A Esus4/C# Esus2/B
E/G# Esus4/A Esus2/B Esus2/B
E/G# Esus4/A B5 D#/C
F#m7 G#m7 AM7 F#m/B

Ikaw parin ang hinahanap
Ikaw parin ang pinapangarap

e|---------------------------------------------------------------------------|
B|-------5-------5-------5-------5-------5-------5-------5-------5-----------|
G|-------4-------4-------4-------4-------4-------4-------4-------4-----------|
D|-----2-------2-------2-------4-------2-------2-------4-------4-------------|
A|-----------0-------4-------2---------------0-------2-------2---------------|
E|---4-------------------------------4---------------------------------------|

'Wag ka nang magalala, maniwala ka
Ikaw lang at wala nang iba

e|---------------------------------------------------------------------------|
B|-------5-------5-------4-----------5---7-----------------------------------|
G|-------4-------4---4---2---2---4---6---6-----------------------------------|
D|-----2-------2-----4---4---2---4---6---7-----------------------------------|
A|-----------0-------2---3---------------------------------------------------|
E|---4-----------------------2---4---5---7-----------------------------------|


[Bridge]

AM7 B D#/C C#m7 Cm7 Bm7 E7
AM7 B D#/C C#m7 Cm7 Bm7 E7
AM7 A6/B

Wala nang ibaaaaa

e|---------------------------------------------------------------------------|
B|---2---2---2---2-----4---4---5---4---3-------------------------------------|
G|---1---1---1---1-----4---2---4---3---2---1---------------------------------|
D|---2---2---2---2-----4---4---6---5---4---0---------------------------------|
A|---0-0---0---0---0---2---3---4---3---2---2---------------------------------|
E|-----------------------------------------0---------------------------------|

e|-------------------------------------------------------2-------------------|
B|---2---2---2---4---4---5---4---3-------2---2---2---2---2-------------------|
G|---1---1---1---4---2---4---3---2---1---1---1---1---1---2-------------------|
D|---2---2---2---4---4---6---5---4---0---2---2---2---2---2-------------------|
A|---0-0---0-----2---3---4---3---2---2---0-0---0---0-----2-------------------|
E|-----------------------------------------0---------------------------------|


[Chorus]

E/G# Esus4/A Esus4/C# Esus2/B
E/G# Esus4/A Esus2/B Esus2/B
E/G# Esus4/A B5 D#/C
F#m7 G#m7 AM7 F#m/B
D#/C C#m7 Cm7 Bm7 E7
F#m7 G#m7 AM7 F#m/B

Ikaw parin ang hinahanap
Ikaw parin ang pinapangarap

e|---------------------------------------------------------------------------|
B|-------5-------5-------5-------5-------5-------5-------5-------5-----------|
G|-------4-------4-------4-------4-------4-------4-------4-------4-----------|
D|-----2-------2-------2-------4-------2-------2-------4-------4-------------|
A|-----------0-------4-------2---------------0-------2-------2---------------|
E|---4-------------------------------4---------------------------------------|

'Wag ka nang magalala, maniwala ka
Ikaw lang at wala nang iba
Ikaw lang at wala nang iba

e|---------------------------------------------------------------------------|
B|-------5-------5-------4-----------5---7---4---5---4---3-------------------|
G|-------4-------4---4---2---2---4---6---6---2---4---3---2---1---------------|
D|-----2-------2-----4---4---2---4---6---7---4---6---5---4---0---------------|
A|-----------0-------2---3-------------------3---4---3---2---2---------------|
E|---4-----------------------2---4---5---7-------------------0---------------|

Ikaw lang at wala nang iba

e|---------------------------------------------------------------------------|
B|-----------5---7-----------------------------------------------------------|
G|---2---4---6---6-----------------------------------------------------------|
D|---2---4---6---7-----------------------------------------------------------|
A|---------------------------------------------------------------------------|
E|---2---4---5---7-----------------------------------------------------------|


[Outro]

AM7 G#m7 C#m7 Badd11

Wala nang iba
Wala nang iba
Wala nang iba
Wala nang iba

e|---------------------------------------------------------------------------|
B|---------------------5---4---4---------------------5-----4-----------------|
G|-----6---4-----4-----4---4--4-4------6---4-----4---4-----4-----------------|
D|-----6---4---4-4-----6---2-----------6---4---4-4---6-----2-----------------|
A|-------------------4-----2-2-----------------------4-----2-----------------|
E|---5-----4-4-----------------------5-----4-4-------------------------------|

e|---------------------------------------------------------------------------|
B|---------------------5---4---4---------------------5-----4-----------------|
G|-----6---4-----4-----4---4--4-4------6---4-----4---4-----4-----------------|
D|-----6---4---4-4-----6---2-----------6---4---4-4---6-----2-----------------|
A|-------------------4-----2-2-----------------------4-----2-----------------|
E|---5-----4-4-----------------------5-----4-4-------------------------------|




Thank you and enjoy playing! <3



LYRICS

Wala Nang Iba
by Jeric Medina


[Verse 1]

Hindi naman ako bolero (tulad ng iba)
Ikaw lang ang nasa isip ko
Alam mo naman ang sinasabi ko,
ikaw ang laman ng puso kong ito
Nasabi ko ba sa'yo na


[Verse 2]

T'wing ikaw ay nakikita
Nawawala mga problema ko
Wala ka na bang ibang ginagawa?
Gusto lang naman kitang makasama
Sinasabi ko sa'yo na


[Pre-Chorus]

Ako'y magiging tunay
At ito'y pang habambuhay
'Wag ka nang mangangamba


[Chorus]

Ikaw parin ang hinahanap
Ikaw parin ang pinapangarap
'Wag ka nang magalala, maniwala ka
Ikaw lang at wala nang iba


[Verse 3]

Hindi nga natin inakala
Na ako'y para sa'yo
Sa'yo lang tumibok ang puso ko
Ikaw ang kabiyak ng buhay kong ito
Sinasabi ko sa'yo na


[Pre-Chorus]

Ako'y magiging tunay
At ito'y pang habambuhay
'Wag ka nang mangangamba


[Chorus]

Ikaw parin ang hinahanap
Ikaw parin ang pinapangarap
'Wag ka nang magalala, maniwala ka
Ikaw lang at wala nang iba


[Bridge] [Adlib]

Wala nang ibaaaaa


[Chorus]

Ikaw parin ang hinanap
Ikaw parin ang pinapangarap
'Wag ka nang magalala, maniwala ka
Ikaw lang at wala nang iba
Ikaw lang at wala nang iba
Ikaw lang at wala nang iba


[Outro]

Wala nang iba
Wala nang iba
Wala nang iba
Wala nang iba
Suggest correction
Creating personal tab
Creating personal tab
You can edit any tab online and save it as your Personal.

You can edit, replace or remove any tab part or add personal notes – all changes will be seen only by you.

Personal tabs can be accessed anytime from any device, even offline.
Learn more »
Give kudos to tab author, rate the tab!
1 2 3 4 5
comments
print report bad tab
guest
You may want to rate the tab now too:
select rating
Wanna post a correction for this tab? Suggest correction