Oops, an error
Loading. Please wait.

All The Things You Are Tab

version 1
version 1

Whole song

Interactive

6,301 views 6 this week
no commentswrite comment
1 2 3 4 5
please rate
add to favorites
launch autoscroll
font size
0
reset
how to read this tab
guitar tuner
Tab Pro tools
  • play this tab
  • loop segment
  • change instrument
  • show fretboard
  • metronome
×
Best way to learn
"All The Things You Are"
Autoscroll
slow
fast
+/-
esc
set tempo
stop
Contributor
Difficulty
intermediate




*****************************************

Chord melody version of the famous song by Jerome Kern
"All the things you are "

jmolives@hotmail.com






*****************************************



|--8-|--9---|---------|-8---|---------|--7---|---|----|
|--9-|--9-9-|-8-8-8-8-|-8-8-|-6-6-6-6-|--6-6-|-5-|--5-|
|--8-|------|-6-------|-8---|-5-5-5-5-|--7---|-4-|--4-|
|----|--8---|-5-------|-6---|-6-6-6-6-|--5---|-5-|--5-|
|--8-|--8---|-6-------|-----|-4-4-4-4-|------|-3-|--3-|
|----|------|---------|-----|---------|------|---|----|



|--3-|--4-|-------|-------|---|-----------|-----|---------10-10----|
|--4-|--4-|-6-----|-------|-8-|-4-3-4-3---|-3---|-------8----8-----|
|--3-|----|-7---7-|-7-7-7-|-7-|-5-------5-|-4---|-----7------9-----|
|----|--3-|-6-----|-------|-8-|-5---------|-4---|------------7-----|
|--3-|--3-|-------|-------|-6-|-----------|-----|------------------|
|----|----|-6-----|-------|---|-4---------|-3---|------------------|


|--8-|-----8-7-|------7-7-|-------|--------|---|---
|--8-|-------7-|----8---9-|-10-10-|-----10-|-9-|--9
|----|-8-9---7-|--9-----9-|-9-----|--------|-8-|--9
|--7-|-------5-|----------|-7-----|-8-9----|-9-|--8
|--7-|-------5-|--------9-|-9-----|--------|-7-|---
|----|---------|----------|-------|--------|---|--8



|--8-|--9---|---------|-8---|---------|--7---|---|----|
|--9-|--9-9-|-8-8-8-8-|-8-8-|-6-6-6-6-|--6-6-|-5-|--5-|
|--8-|------|-6-------|-8---|-5-5-5-5-|--7---|-4-|--4-|
|----|--8---|-5-------|-6---|-6-6-6-6-|--5---|-5-|--5-|
|--8-|--8---|-6-------|-----|-4-4-4-4-|------|-3-|--3-|
|----|------|---------|-----|---------|------|---|----|



|--8-|--9---|---------|-8---|
|--9-|--9-9-|-8-8-8-8-|-8-8-|
|--8-|------|-6-------|-8---|
|----|--8---|-5-------|-6---|
|--8-|--8---|-6-------|-----|
|----|------|---------|-----|

|----|----11-9-|-3-------|
|--6-|----9----|-4-4-4-4-|
|--5-|----9----|-3-------|
|--6-|----9----|-3-------|
|--4-|----9----|-3-------|
|----|---------|---------|

|----|----11-9-|-3-------|-3-|-1---1-4-|-13----|---|-----|
|--6-|----9----|-4-4-4-4-|-3-|-2-2-----|-11----|-9-|-3-3-|
|--5-|----9----|-3-------|---|-1-------|-12-12-|-8-|-4-3-|
|--6-|----9----|-3-------|-2-|---------|-10----|-6-|-3-2-|
|--4-|----9----|-3-------|-2-|-1-------|-------|---|---3-|
|----|---------|---------|---|---------|-------|-8-|-3---|
comments
We did not receive enough feedback on this tab! Please rate:
print report bad tab
1 2 3 4 5
I want to post or [tab]
guest
You may want to rate the tab now too:
select rating
Please do not post tabs as comments. Select "correction" instead!