Oops, an error
Loading. Please wait.

All The Things You Are Tab

version 2
version 2

Whole song

Interactive

2,138 views 6 this week
no commentswrite comment
1 2 3 4 5
please rate
add to favorites
launch autoscroll
font size
0
reset
how to read this tab
guitar tuner
Tab Pro tools
  • play this tab
  • loop segment
  • change instrument
  • show fretboard
  • metronome
×
Best way to learn
"All The Things You Are"
Autoscroll
slow
fast
+/-
esc
set tempo
stop
Contributor
Difficulty
novice
Notes: This is the melody in tab and the chord accompaniment.
The * next to the chords means it is denoted a triplet or a sustained dotted note. 
This depends if there is are three notes or one

Tuning: EADGBE


        Fmin7           Bbmin7           Ebmaj7         Abmaj7     
e|-|---------------|---------------|---------------|---------------|
B|4|---------------|---------------|---------------|---------------|
G|-|---------------|6--------------|---------------|-----5---------|
D|4|6--------------|---------------|--5--5---5--5--|-5----------5--|
A|-|---------------|---------------|---------------|---------------|
E|-|---------------|---------------|---------------|---------------|

        Dbmaj7          G7                Cmaj7          Cmaj7
e|-|---------------|---------------|---------------|---------------|
B|4|---------------|---------------|---------------|---------------|
G|-|---------------|------4--------|---------------|---------------|
D|4|-3--3---3--3---|-3----------4--|2--------------|(2)------------|
A|-|---------------|---------------|---------------|---------------|
E|-|---------------|---------------|---------------|---------------|

          Cmin7          *Fmin7          Bbmin7          Ebmaj7
e|-|---------------|---------------|---------------|---------------|
B|4|---------------|---------------|---------------|---------------|
G|-|---------------|---------------|---------------|---------------|
D|4|---------------|-1-------------|---------------|-----5---------|
A|-|---------------|---------------|--5--5--5---5--|-5----------5--|
E|-|1--------------|-----------1---|---------------|---------------|

          Abmaj7          *D7             Gmaj7          Gmaj7
e|-|---------------|---------------|---------------|---------------|
B|4|---------------|---------------|---------------|-------------2-|
G|-|---------------|---------------|---------------|---------------|
D|4|---------------|---------------|---------------|----------5----|
A|-|--3--3---3--3--|3-5-6-----5--3-|2--------------|(2)----5-------|
E|-|---------------|---------------|---------------|---------------|

        Amin7           D7              Gmaj7           Gmaj7
e|-|---------------|---------------|---------------|---------------|
B|4|-2--------1----|-(1)---------1-|---------------|---------------|
G|-|---------------|---------------|4--------------|(4)----------4-|
D|4|---------------|-----1---2-----|---------------|----------5----|
A|-|---------------|---------------|---------------|------5--------|
E|-|---------------|---------------|---------------|---------------|

          F#min7          B7             Emaj7           Caug7
e|-|---------------|---------------|---------------|---------------|
B|4|---------------|---------------|---------------|---------------|
G|-|--4------2-----|(2)--------2---|1--------------|(1)------------|
D|4|---------------|---------------|---------------|---------------|
A|-|---------------|-----1--2------|---------------|---------------|
E|-|---------------|---------------|---------------|---------------|

          Fmin7          *Bbmin7          Eb7            Abmaj7
e|-|---------------|---------------|---------------|---------------|
B|4|---------------|--3------------|---------------|------1--------|
G|-|1--------------|-----------1---|---------------|---------------|
D|4|---------------|---------------|--5--5---5--5--|5-----------5--|
A|-|---------------|---------------|---------------|---------------|
E|-|---------------|---------------|---------------|---------------|

          Dbmaj7          *Dbmin7          *Cmin7         *Bdim7
e|-|---------------|---------------|---------------|---------------|
B|4|---------------|4---------2----|---------------|---------------|
G|-|---------------|---------------|---------------|---------------|
D|4|-3-------------|---------------|---------------|---------------|
A|-|---------------|---------------|1---1----1-1-1-|--5----------4-|
E|-|---------------|---------------|---------------|---------------|

          Bbmin7          Eb7            Abmaj7         (G7 - C7)
e|-|---------------|--1--------3---|4--------------|(4)------------|
B|4|-----------2---|---------------|---------------|---------------|
G|-|-------1-------|---------------|---------------|---------------|
D|4|---3-----------|---------------|---------------|---------------|
A|-|5--------------|---------------|---------------|---------------|
E|-|---------------|---------------|---------------|---------------|
     

Let me know in the comments if I missed any thing and I will edit it. 

Thanks and enjoy!
comments
We did not receive enough feedback on this tab! Please rate:
print report bad tab
1 2 3 4 5
I want to post or [tab]
guest
You may want to rate the tab now too:
select rating
Please do not post tabs as comments. Select "correction" instead!