Oops, an error
Loading. Please wait.

Les Mains Qui Tremblent Tab

version 1
version 1

Whole song

Interactive

249 views 1 this week
no commentswrite comment
1 2 3 4 5
please rate
add to favorites
launch autoscroll
font size
0
reset
how to read this tab
guitar tuner
Autoscroll
slow
fast
+/-
esc
set tempo
stop
Help us to improve Ultimate-Guitar.com Take our survey!
×
Author
Difficulty
intermediate
JERONIMO
LES MAINS QUI TREMBLENT
-----------------------

Text version of my gp5 tab. (cool_rom)



Standard Tuning (E,A,D,G,B,e)

p=pulling off
h=hammer on
\=slide downwards
/=slide upwards


__________________________________________________________________

INTRO (X3 times)
---------------

 
E|--------------------------|
B|--6-----------6-----------|
G|-----3-----3--------3-----|
D|--------4--------4-----4--|
A|--------------------------|
E|--------------------------|


__________________________________________________________________

VERSE/COUPLET
-------------

Play 7 times this (clean): 
E|--------------------------|
B|--6-----------6-----------|
G|--------3-----------3-----|
D|-----4-----4-----4-----4--|
A|--------------------------|
E|--------------------------|

The 8th time is played this way:
|--------------------------|
|--6-----------6-----------|
|--------3-----------------|
|-----4-----4--------------|
|--------------------------|
|--------------------------|


__________________________________________________________________

CHORUS/REFRAIN
--------------

Play this 2 times (overdrive):
------------------------------|-----------------------------|
------------------------------|-----------------------------|
------------------------------|-----------------------------|
--6--6--6--6-8--8-8--8-8------|-----------------------------|
--4--4--4--4-6--6-6--6-6\4-h6-|-8--8--8--8-8--8-8--8-8-p6\4-|
------------------------------|-6--6--6--6-6--6-6--6-6------|
  C#          D#                A#

------------------------------|-----------------------------|
------------------------------|-----------------------------|
------------------------------|-----------------------------|
--4--4--4--4-8--8-8--8-8------|-----------------------------|
--4--4--4--4-6--6-6--6-6\4-h6-|-8--8--8--8-8--8-8--8-8-p6\4-|
------------------------------|-6--6--6--6-6--6-6--6-6------|
  F#          D#                A#


The 2nd time ends this way: (with a slide instead of the p6\4 )
|---------------------------|
|---------------------------|
|---------------------------|
|---------------------------|
|--8--8--8--8-8--8-8--8\----|
|--6--6--6--6-6--6-6--6\----|


__________________________________________________________________

VERSE/COUPLET
Play the same verse as the first one.
Même couplet que le premier.

__________________________________________________________________

CHORUS/REFRAIN
Play the chorus again.
Rejouer le refrain.


__________________________________________________________________

BRIDGE
------

---------9------------9-----|---------9------------9-----|
--6--h7-----7--6--h7-----7--|--6--h7-----7--6--h7-----7--|
----------------------------|----------------------------|
----------------------------|----------------------------|
----------------------------|----------------------------|
----------------------------|----------------------------|

  
---------9---- -------------|--------------------------|
--6--h7-----7- -6-----------|--6-----------6-----------|
-------------- -------3-----|--------3-----------3-----|
-------------- ----4-----4--|-----4-----4-----4-----4--|
-------------- -------------|--------------------------|
-------------- -------------|--------------------------|


--------------------------|-------------------------|
--6-----------6-----------|--6-----------6----------|
--------3-----------3-----|--------3-----------3----|
-----4-----4-----4-----4--|-----4-----4-----4-------|
--------------------------|-------------------------|
--------------------------|-------------------------|


__________________________________________________________________

CHORUS/REFRAIN
Play the whole chorus again.
Rejouer le refrain.


CHORUS WITHOUT SINGING/REFRAIN SANS CHANT**
Play half the chorus (only once instead of 2 times)
Jouer la moitié d'un refrain (1 fois ce qui est tabbé plus haut au lieu de 2)


CHORUS/REFRAIN**
Replay the whole chorus.
Rejouer le refrain entier.


__________________________________________________________________


**while those choruses are played, another guitar is playing this:
----6\--4\--2\1--|-----1----------|
-----------------|----------------|
-----------------|----------------|
-----------------|----------------|
-----------------|----------------|
-----------------|----------------|


Have fun ;)
Suggest correction
Give kudos to tab author, rate the tab!
1 2 3 4 5
comments
print report bad tab
guest
You may want to rate the tab now too:
select rating
Please do not post tabs as comments. Select "correction" instead!