Oops, an error
Loading. Please wait.

One More Drinkin Song Tab

9,421 views 6 this week
no commentswrite comment
1 2 3 4 5
excellent!
x 7
add to favorites
launch autoscroll
font size
0
reset
how to read this tab
guitar tuner
Autoscroll
slow
fast
+/-
esc
set tempo
stop
Help us to improve Ultimate-Guitar.com Take our survey!
×
Author
Difficulty
Capo
intermediate
2nd fret
Couldnt find a tab for this so decided to figure it out for myself.
He throws some string slaps in there so if you feel comfortable with it
throw it in but if not it still sounds good. Def. gives more feel though.
As always, h for hammer on and s for slide.


Capo 2nd Fret

e----------------------------------------------------------------------|
B------------------------0h1----------------------------3-3s1-1s3-1-0--|
G--------0-------------------2---2---------0--------2s4---4s2-2s4-2-0--|
D--0h2-----0---0--0h2----------------0h2-----0---0---------------------|
A------------------------0-----0---------------------------------------|
E--3---3-----3----3------------------3---3-----3-----------------------|
                      ^
               (string slap)
e----------------------------------------------------------------------|
B------------------------0h1--------0-1-1s3-1-0------------------------|
G--------0-------------------2---2--0-2-2s4-2-0-----------0------------|
D--0h2-----0---0--0h2---------------------------0-0-0-0h2--------------|
A------------------------0-----0---------------------------------------|
E--3---------3----3----------------------------------------------------|
                      ^
       ^        (string slap)
 (string slap)
Suggest correction
comments
print report bad tab
guest
You may want to rate the tab now too:
select rating
Please do not post tabs as comments. Select "correction" instead!