Oops, an error
Loading. Please wait.

Been A Long Time Bass Tab

28 views 1 this week
no commentswrite comment
1 2 3 4 5
3 more votes to show rating
add to favorites
launch autoscroll
font size
0
reset
guitar tuner
Autoscroll
slow
fast
+/-
esc
set tempo
stop
Help us to improve Ultimate-Guitar.com Take our survey!
×
Author
Been A Long Time
Jerry Butler
Bass Tab
Bass: Ron Baker

112BPM, 4/4, D


[Intro]

   W          W          W          W
G|----------|----------|----------|----------|
D|----------|----------|----------|----------|
A|----------|----------|----------|----------|
E|----------|----------|----------|----------|

   W          W          W          E. E. H    E
G|----------|----------|----------|--------------|
D|----------|----------|----------|-5--3---------|
A|----------|----------|----------|-------5----5-|
E|----------|----------|----------|--------------|

   E E E E E E E E   E E E E E E E E   E E E E E E E E   E E E E E E E E
G|-----------------|-----------------|-----------------|-----------------|
D|-----------------|-----------------|-----------------|-----------------|
A|-5-5-5-5-5-5-5-5-|-5-5-5-5-5-5-5-5-|-5-5-------------|-----2-2-3-3-4-4-|
E|-----------------|-----------------|-----2-2-3-3-4-4-|-5-5-------------|

[Verse]

   E E E SE SE E E   S S S S E. S S S S S E E   E. SQ  SSE Q    S S S S E. S S S S S E E
G|-----------------|-9-6----------------------|---------------|-9-6----------------------|
D|-----------------|-----9-6----5h7-5---------|---------------|-----9-6----5h7-5---------|
A|-5-x---55-5--5---|---------7--------7-4---4-|-5--5---55--5--|---------7--------7-4-----|
E|-----5-----5---5-|----------------------5---|-----5----5----|----------------------5-4-|

[Pre-Chorus]

   E. SE. SE E E E   Q  E. SE E E E   Q  E. SE E E E   E E E E E E E E
G|-----------------|----------------|----------------|-----------------|
D|-------------2-5-|------------2-5-|------------4-7-|-----------------|
A|-----2--x5-5-----|----2--x5-5-----|----4--x7-7-----|-----------------|
E|-3--x------------|-3--------------|-5--------------|-5-5-5-5-5-5-5-5-|

[Chorus]

   Q  H.        W          W          E. E. E E E E E
G|------------|----------|----------|-----------------|
D|------------|----------|----------|-5--3------------|
A|-5----------|----------|----------|-------5-5-5-5-5-|
E|------------|----------|----------|-----------------|

   E E E E E E E E   E E E E E E E E   E E E E E E E E   E E E E E E E E
G|-----------------|-----------------|-----------------|-----------------|
D|-----------------|-----------------|-----------------|-----------------|
A|-5-5-5-5-5-5-5-5-|-5-5-5-5-5-5-5-5-|-5-5-------------|-----2-2-3-3-4-4-|
E|-----------------|-----------------|-----2-2-3-3-4-4-|-5-5-------------|

[Verse]

   E E E SSSSE E. S   S E S E. S S S S S E E   E. SE. SE E E E   S S S S E. S S S S S E E
G|----------------6h|=9-6--------------------|-----------------|-9-6----------------------|
D|------------------|-----6----5h7-5---------|-----------------|-----9-6----5h7-5---------|
A|-5---5--555--5----|-------7--------7-4---4-|-5--5----5-5---5-|---------7--------7-4-----|
E|---5---5---5------|--------------------5---|-----5--5----5---|----------------------5-4-|

[Pre-Chorus]

   E. SE. SE E E E   Q  SSSSE E E E   Q  E. SE E E E   E E E E E E E E
G|-----------------|----------------|----------------|-----------------|
D|-------------2-5-|------------2-5-|------------4-7-|-----------------|
A|-----2--25-5-----|-----2345-5-----|----4--47-7-----|-----------------|
E|-3--3------------|-3--3-----------|-5--------------|-5-5-5-5-5-5-5-5-|

[Chorus]

   Q  H.        W          W          E. E. E E E E E
G|------------|----------|----------|-----------------|
D|------------|----------|----------|-5--3------------|
A|-5----------|----------|----------|-------5-5-5-5-5-|
E|------------|----------|----------|-----------------|

   E E E E E E E E   E E E E E E E E   E E E E E E E E   E E E E E E E E
G|-----------------|-----------------|-----------------|-----------------|
D|-----------------|-----------------|-----------------|-----------------|
A|-5-5-5-5-5-5-5-5-|-5-5-5-5-5-5-5-5-|-5-5-------------|-----2-2-3-3-4-4-|
E|-----------------|-----------------|-----2-2-3-3-4-4-|-5-5-------------|

[Verse]

   E E E SSSSE E E   S S S S E. S S S S S E E   E. SE. SSSE Q    S S S S E. S S S S S E E
G|-----------------|-9-6----------------------|----------------|-9-6----------------------|
D|-----------------|-----9-6----5h7-5---------|----------------|-----9-6----5h7-5---------|
A|-5---5--555--5---|---------7--------7-4---4-|-5--x----55--5--|---------7--------7-4-----|
E|---5---5---5---5-|----------------------5---|-----5--5--5----|----------------------5-4-|

[Pre-Chorus]

   E. SE. SE E E E   Q  E. SE E E E   Q  E. SE E E E   E E E E E E E E
G|-----------------|----------------|----------------|-----------------|
D|----2--------2-5-|------------2-5-|------------4-7-|-----------------|
A|-----2--x5-5-----|----2--x5-5-----|----4--47-7-----|-----------------|
E|-3---------------|-3--------------|-5--------------|-5-5-5-5-5-5-5-5-|

[Chorus]

   Q  H.        W          W          E. E. E. SE SSE
G|------------|----------|----------|-----------------|
D|------------|----------|----------|-5--3------------|
A|-5----------|----------|----------|-------5--5------|
E|------------|----------|----------|-----------2-335-|

[Chorus/Ending]

   E. SE. SE E Q    E E E. SSSE E E   E. SE. SE E E E   E. E. E SE SSSE
G|----------------|-----------------|-----------------|-----------------|
D|----------------|-----------------|-----------------|-5--3------------|
A|-5--5---x5-5----|-5-5----555------|-5--x---55-5---5-|-------5---------|
E|-----5-------5--|-----5-----2-3-5-|-----5-------5---|---------52-x335-|

   E. SE. SE E E E   E. SE. SE E E E   E. SE. SSSE E E   E. E. E. SE E E
G|-----------------|-----------------|-----------------|-----------------|
D|-----------------|-----------------|-----------------|-5--3------------|
A|-5--x---55-5---5-|-5--x---x3-4-5---|-5--5---555--5---|-------5--5------|
E|-----5-------5---|-----5---------5-|-----5-----5---5-|-----------2-3-5-|

   E. SE. SE E E E   E. SE. SSSE E E   E. SE. SE E E E   E. E. E SE. E E
G|-----------------|-----------------|-----------------|-----------------|
D|-----------------|---------------3-|-----------------|-5--3------------|
A|-5--x---x3-4-5---|-5--x----55--5---|-5--x---55-5---5-|-------5---------|
E|-----5---------5-|-----5--5--5-----|-----5-------5---|---------52--3-5-|

   E. SE. SE E Q    E. SE. SE E Q
G|----------------|----------------*|
D|----------------|----------------*|
A|-5--x---55-5----|-5--x---55-5----*|
E|-----5-------5--|-----5-------5--*| fade


Legend
------
W - Whole Note (8 "-"s)
H - Half Note (4 "-"s)
H. - Half Dotted (6 "-"s)
Q - Quarter Note (2 "-"s)
Q. - Quarter Dotted (3 "-"s)
E - Eighth Note (1 "-")
E. - Eighth Dotted (2 "-"s)
S - Sixteenth Notes (0 "-"s, Except when it would be too messy, then 1 "-")
Suggest correction
Give kudos to tab author, rate the tab!
1 2 3 4 5
comments
print report bad tab
guest
You may want to rate the tab now too:
select rating
Wanna post a correction for this tab? Suggest correction