Oops, an error
Loading. Please wait.

Anger Rising Bass Tab

version 1
version 1

Whole song

Interactive

1,365 views 1 this week
3 commentsread comments
1 2 3 4 5
excellent!
x 5
add to favorites
launch autoscroll
font size
0
reset
guitar tuner
Tab Pro tools
  • play this tab
  • loop segment
  • change instrument
  • show fretboard
  • metronome
Autoscroll
slow
fast
+/-
esc
set tempo
stop
Contributor
Jerry Cantrell
Anger Rising

Intro
Gb--------------------------------------------------------------------|
Db--------------------------------------------------------------------|
Ab----------------------3---------------------------------------------|
Eb---7-----5-----1------------3-------2------0----0-0-0-0-0-0-0-0-0-0-|

Main Verse (Repeat Many Times)

Gb------------------------------------|
Db------------------------------------|
Ab---------5----------------------5---|
Eb---5-7-7---2-2-2-0-1-1-1-0-0--5---5-|

Chorus

Gb-------------------------------|
Db-------------------------------|
Ab----------5--------------------|
Eb---5-7-5-----7---1--2--5-5-7-7-|
Then:

Main Verse
Chorus
Intro
Main Verse
Chorus
Main Verse
Chorus
Intro
comments
print report bad tab
3 comments total.
+1 reply
joeadzhiyev(: wrote on June 10 2007, 07:02 pm

dude you stole this from me to!!stop stealing my tabs you ultimate guitar poser!!!!!!!. god, andrew your so gay dude. get your own life and learn to live it. i can see why you would steal my tab seeing as you suck at guitar and all. but come on dude theres more to life then stealing my work and taking all the credit.me and my band(yes i said band cuz i actully have friends to play guitar with)are going to come up with a song singing about how gay you are. are you going to try and tab that too?but oh yeah, thats right,you suck. i forgot. but i am sure there will be tons of people tabbing that song and then you can copy and past them on and take credit for it as well.haha

stop stealing from mxtabs!.............fag.

0 reply
tydogg2443 wrote on April 18 2014, 07:28 pm

CHORUS
Gb-------------------------------|
Db-------------------------------|
Ab----------5--------------------|
Eb---5-7-5-----0---1--2--5-5-7-7-|

Gb-------------------------------|
Db-------------------------------|
Ab----------5--7-----------------|
Eb---5-7-5---------1--2--5-5-7-7-|

0 reply
KennyM79 wrote on February 4 2015, 10:54 am, edited at 11:29 am

LMAO @ people getting mad at someone for "stealing" tabs!

I want to post or [tab]
guest
You may want to rate the tab now too:
select rating
Please do not post tabs as comments. Select "correction" instead!