Oops, an error
Loading. Please wait.

Bargain Basement Howard Hughes Bass Tab

version 1
version 1

Whole song

Interactive

159 views 1 this week
no commentswrite comment
1 2 3 4 5
please rate
add to favorites
launch autoscroll
font size
0
reset
guitar tuner
Autoscroll
slow
fast
+/-
esc
set tempo
stop
Help us to improve Ultimate-Guitar.com Take our survey!
×
Author
tuning: D Ab Db Gb

:00 x4
|-----------------------------|
|-----------------------------|
|--5/6-6-6-6------------------|
|------------6-6-6-5-5--0--0--|

:21 x3
|-----------------------------------------|
|-----------------------------------------|
|--5/6-6-6-6------------------------------|
|------------6-6-6-5-5--0--0----0--0-3-0--|

:36
|-------------------------------------|
|-------------------------------------|
|--5/6-6-6-6--------------------5-----|
|------------6-6-6-5-5--0--0-------5--|

:51 x2
|--------------------------------------|
|--------------------------------------|
|--------------------------------------|
|--0-0-3/5-6----5----0----0-3-6-5-3-0--|  SLIDE AT BEGINNING

1:02 x8
|----------------------|
|----------------------|
|----------------------|
|--0-3/5-6----0-3/5-0--|

1:23 x2
|--------------------------------------|
|--------------------------------------|
|--------------------------------------|
|--0-0-3/5-6----5----0----0-3-6-5-3-0--|

1:33 x3
|-----------------------------|
|-----------------------------|
|--5/6-6-6-6------------------|
|------------6-6-6-5-5--0--0--|

1:48
|-------------------------------------|
|-------------------------------------|
|--5/6-6-6-6--------------------5-----|
|------------6-6-6-5-5--0--0-------5--|

1:54 x4
|--------------------------------------|
|--------------------------------------|
|--------------------------------------|
|--0-0-3/5-6----5----0----0-3-6-5-3-0--|

2:14 x8
|----------------------|
|----------------------|
|----------------------|
|--0-3/5-6----0-3/5-0--|

2:35 x2
|--------------------------------------|
|--------------------------------------|
|--------------------------------------|
|--0-0-3/5-6----5----0----0-3-6-5-3-0--|

2:45 x3
|-----------------------------|
|-----------------------------|
|--5/6-6-6-6------------------|
|------------6-6-6-5-5--0--0--|

3:01
|-------------------------------------|
|-------------------------------------|
|--5/6-6-6-6--------------------5-----|
|------------6-6-6-5-5--0--0-------5--|

3:06 x2
|--------------------------------------------|
|--------------------------------------------|
|--------5-6-6-6---------6-6-6-5-------------|
|--0-5-6------------0------------6-5-4----0--|  

3:27 x4
|--------------------------------------|
|--------------------------------------|
|--------------------------------------|
|--0-0-3/5-6----5----0----0-3-6-5-3-0--|

3:47 x3
|-----------------------------|
|-----------------------------|
|--5/6-6-6-6------------------|
|------------6-6-6-5-5--0--0--|

4:03
|-------------------------------------|
|-------------------------------------|
|--5/6-6-6-6--------------------5-----|
|------------6-6-6-5-5--0--0-------5--|

4:10 x8
|----------------------|
|----------------------|
|----------------------|
|--0-3/5-6----0-3/5-0--|

4:31 x2
|--------------------------------------|
|--------------------------------------|
|--------------------------------------|
|--0-0-3/5-6----5----0----0-3-6-5-3-0--|

4:41 x4
|-----------------------------|
|-----------------------------|
|--5/6-6-6-6------------------|
|------------6-6-6-5-5--0--0--|

5:02 x3
|-----------------------------------------|
|-----------------------------------------|
|--5/6-6-6-6------------------------------|
|------------6-6-6-5-5--0--0----0--0-3-0--|

5:18
|-------------------------------------|
|-------------------------------------|
|--5/6-6-6-6--------------------5-----|
|------------6-6-6-5-5--0--0-------5--|
Suggest correction
What's this?
You can suggest a correction to this tab. Community and Mods will review your correction and vote to approve or reject it.
comments
We did not receive enough feedback on this tab! Please rate:
print report bad tab
1 2 3 4 5
guest
You may want to rate the tab now too:
select rating
Please do not post tabs as comments. Select "correction" instead!