Oops, an error
Loading. Please wait.

Between Tab

version 1
version 1

Whole song

3,139 views 6 this week
1 commentread comment
1 2 3 4 5
excellent!
x 3
add to favorites
launch autoscroll
font size
0
reset
how to read this tab
guitar tuner
Tab Pro tools
  • play this tab
  • loop segment
  • change instrument
  • show fretboard
  • metronome
×
Best way to learn
"Between"
Autoscroll
slow
fast
+/-
esc
set tempo
stop
Contributor
Jerry Cantrell - BETWEEN 
Album: Boggy Depot
tabbed by jjhand, with help from ibryant0915
Guitar I - Clean Electric - 1/2 step down
Guitar II - Distorted Electric- 1/2 step down

This song has a nice folk sound and some pentatonic scales and bends.
Have fun with it, the solo is nice too! Rate me or comment!

Riff A - play 4x, let ring
eb|---------------------------------|
Bb|-------------3---------------3---|
Gb|-----2---------------2-----------|
Db|-0-------0-------0-------0-------|
Ab|---------------------------------|
Eb|---------------------------------|


-Guitar I- Verse I & Verse II:
Play intro Riff for 6 bars, then

Riff B - Let ring
eb|-------------------------|-------------------------|
Bb|-----------2-----------2-|-----------2-----------2-|
Gb|-----2-----------2-------|----2-----------2--------|
Db|--------2-----2-----2----|-2-----2-----2-----2-----|
Ab|--0----------------------|-------------------------|
Eb|-------------------------|-------------------------|

Play intro riff for 2 more bars, then electric comes in:

-Guitar II- Verse II
eb|-----------------------|
Bb|-----------------------|
Gb|----------7------------|
Db|----------7------------|      [Hold until fade out]
Ab|----------5------------|
Eb|-----------------------|

During this, play the same 10 bar verse pattern (6A, 2B, 2A)


Chorus 
   Acoustic/Electric
eb|-3----3-3---0----0-0--|-2---2-2---2---2-2--|-3---3-3---3---3-3-|
Bb|-0----0-0---2----2-2--|-3---3-3---2---2-2--|-0---0-0---0---0-0-|
Gb|-0----0-0---2----2-2--|-4---4-4---3---3-3--|-0---0-0---0---0-0-|
Db|-0----0-0---2----2-2--|-4---4-4---4---4-4--|-0---0-0---0---0-0-|
Ab|-2----2-2---0----0-0--|-2---2-2---4---4-4--|-2---2-2---2---2-2-|
Eb|-3----3-3-------------|-----------2---2-2--|-3---3-3---3---3-3-|
  |
  |Guitar 2
eb|-15---14-12-----------|-12b14--12-----------|-----------------|
Bb|------------14b15--14-|-----------15-14--15-|-12~---------14--|
Gb|----------------------|---------------------|-----------------|
Db|----------------------|---------------------|-----------------|
Ab|----------------------|---------------------|-----------------|
Eb|----------------------|---------------------|-----------------|


eb|-0-0-----------|-3----3-3---0----0-0---|-2----2-2---2----2-2--|
Bb|-2-2-----------|-0----0-0---2----2-2---|-3----3-3---2----2-2--|
Gb|-2-2-----------|-0----0-0---2----2-2---|-4----4-4---3----3-3--|
Db|-2-2-----------|-0----0-0---2----2-2---|-4----4-4---4----4-4--|
Ab|-0-0---0-2-0---|-2----2-2---0----0-0---|-2----2-2---4----4-4--|
Eb|-------------3-|-3----3-3--------------|------------2----2-2--|
  |
  |
eb|-14h15-14~-----|-14h15--14-12----------|-12b14--12------------|
Bb|---------------|-------------14h15--14-|-----------15-14--15--|
Gb|---------------|-----------------------|----------------------|
Db|---------------|-----------------------|----------------------|
Ab|---------------|-----------------------|----------------------|
Eb|---------------|-----------------------|----------------------|

   Acoustic/Electric                         Ending
eb|-3---3-3---3---3-3-|---0-0------0--0-0----|------------|--0--0--------|    
Bb|-0---0-0---0---0-0-|---2-2------2--2-2----|-3----------|--2--2--------|
Gb|-0---0-0---0---0-0-|---2-2------2--2-2----|-2----------|--2--2--------|
Db|-0---0-0---0---0-0-|---2-2------2--2-2----|-0----------|--2--2--------|
Ab|-2---2-2---2---2-2-|---0-0------0--0-0----|-0----------|--0--0--------|
Eb|-3---3-3---3---3-3-|----------------------|------------|--------------|
  |
eb|-------------------|-14h15--14--12--14-12-|------------|--------------|
Bb|-12~-----------14--|----------------------|------------|--------------|
Gb|-------------------|----------------------|-7----------|--------------|
Db|-------------------|----------------------|-7----------|--7--7--------|
Ab|-------------------|----------------------|-5----------|--7--7--------|
Eb|-------------------|----------------------|------------|--5--5--------|


Guitar 2:
Solo (with Acoustic Intro & Verse Riff part)
eb|----------------------|--------------|---------------------|------------|
Bb|-----10-10------10-10-|--------------|------10-10-10b12r10-|-(10)-------|
Gb|-9b11-------9b11------|-9b11---------|--9b11---------------|------------|
Db|----------------------|--------------|---------------------|------------|
Ab|----------------------|--------------|---------------------|------------|
Eb|----------------------|--------------|---------------------|------------|

eb|----------------------|---------------|------------|----7-9-9b10--9-7-------|
Bb|-----10-10------10-10-|---------------|-10---------|-10---------------10b12-|
Gb|-9b11-------9b11------|-9b11-9--7--7--|------------|------------------------|
Db|----------------------|---------------|------------|------------------------|
Ab|----------------------|---------------|------------|------------------------|
Eb|----------------------|---------------|------------|------------------------|

eb|----------------------|----------------|
Bb|-10-----7h10p7h8------|-------10-------|
Gb|----------------------|---9b11---9-7---|
Db|----------------------|----------------|    
Ab|----------------------|----------------|
Eb|----------------------|----------------|

Play Chorus again

Play Verse again

Play Chorus 2x through, skipping the chorus ending 

Ending (play 3x)                         Final chord after repeats:
eb|--------------|-----------------|    |--------------|
Bb|--------------|-----------------|    |--------------|
Gb|--7-----------|-----------------|    |--7-----------|
Db|--7-----------|----7--7---------|    |--7-----------|
Ab|--5-----------|----7--7---------|    |--5-----------|
Eb|--------------|----5--5---------|    |--5-----------|


KEY:

| /  slide up
| \  slide down
| h  hammer-on
| p  pull-off
| ~  vibrato
| +  harmonic
| b  string bend
| r  release of bent string
comments
We did not receive enough feedback on this tab! Please rate:
print report bad tab
1 2 3 4 5
1 comment total.
0 reply
Metalheadhobo1 wrote on March 18 2014, 09:00 pm

Perfect as far as I can tell, Thanks!

I want to post or [tab]
guest
You may want to rate the tab now too:
select rating
Please do not post tabs as comments. Select "correction" instead!