Oops, an error
Loading. Please wait.

Cut You In Tab

version 2
version 2

Whole song

Interactive

1,048 views 12 this week
no commentswrite comment
1 2 3 4 5
excellent!
x 5
add to favorites
launch autoscroll
font size
0
reset
how to read this tab
guitar tuner
Tab Pro tools
  • play this tab
  • loop segment
  • change instrument
  • show fretboard
  • metronome
Autoscroll
slow
fast
+/-
esc
set tempo
stop
Contributor
Difficulty
Tuning
intermediate
D# G# C# F# A# D#
Jerry Cantrell - 'Cut You In'
From 'Boggy Depot'
Tuning: Eb
Tabbed by jjhand


This tab used live footage for better accuracy. Please rate/comment.



Intro/ Verse riff -

eb|-------------------|------------------|-------------------|------------------|
Bb|-------------------|------------------|-------------------|------------------|
Gb|-3------2-2-3----3-|---2-3-4----4-4-4-|-3------3-3-3----3-|---3-3-4----4-4-4-|
Db|-4------3-3-4----4-|---3-4-5----5-5-5-|-4------4-4-4----4-|---4-4-5----5-5-5-|
Ab|-4------3-3-4----4-|---3-4-5----5-5-5-|-4------4-4-4----4-|---4-4-5----5-5-5-|
Eb|-2------1-1-2----2-|---1-2-3----3-3-3-|-2------0-0-2----2-|---0-2-3----3-3-3-|




Chorus - Adds percussive strums in the rhythm with some slight harmonics

eb|-------------------|------------------|-------------------|------------------|
Bb|-------------------|------------------|-------------------|------------------|
Gb|-3----x-2-2-3--x-3-|---2-3-4----4-4-4-|-3----x-3-3-3--x-3-|---3-3-4----4-4-4-|
Db|-4----x-3-3-4--x-4-|---3-4-5----5-5-5-|-4----x-4-4-4--x-4-|---4-4-5----5-5-5-|
Ab|-4----x-3-3-4--x-4-|---3-4-5----5-5-5-|-4----x-4-4-4--x-4-|---4-4-5----5-5-5-|
Eb|-2----x-1-1-2--x-2-|---1-2-3----3-3-3-|-2----x-0-0-2--x-2-|---0-2-3----3-3-3-|



Verse 2 - Same as Before, but Jerry bends 2nd fret of low Eb string before lyrics begin


Play Chorus Again, but 2nd guitar adds:

        loop these 2 bars during chorus
-----||-----------------|------------------||
-----||-----------------|-9-----9----------||
-6-7-||-9-7-6~----6-7-6-|-----6---/9~~-6-7-||
-----||-----------------|------------------||
-----||-----------------|------------------||
-----||-----------------|------------------||




Solo


|-------------------------|----------------------|
|-------------10-10----10-|-----10---12br14------| play this 2x
|-------11----------11----|---9----9--------9-11-|
|-11-11----11-------------|----------------------|
|-------------------------|----------------------|
|-------------------------|----------------------|


|---------------------------|----------------------|------------------------------|
|---------------------------|----------------------|---------------------10b12----|
|-(11~)-------9h11p9---9----|----------------------|------------------------------|
|-------------------11---11-|-10-9-7-9br10-7-------|----------7-9-7-9b10----------|
|---------------------------|----------------9-7h9-|------7h9---------------------|
|---------------------------|----------------------|---7h9------------------------|




Play Verse Riff and Chorus Riff to end song


Key:

h  - hammer on
p  - pull off
~  - tremelo/vibrato
b  - bend note to match number fret indicated
br - bend, then release bend
/  - slide
x  - muted note
comments
print report bad tab
I want to post or [tab]
guest
You may want to rate the tab now too:
select rating
Please do not post tabs as comments. Select "correction" instead!