Oops, an error
Loading. Please wait.

Dickeye Bass Tab

version 1
version 1

Whole song

Interactive

250 views 1 this week
no commentswrite comment
1 2 3 4 5
please rate
add to favorites
launch autoscroll
font size
0
reset
guitar tuner
Tab Pro tools
  • play this tab
  • loop segment
  • change instrument
  • show fretboard
  • metronome
×
Best way to learn
"Dickeye"
Autoscroll
slow
fast
+/-
esc
set tempo
stop
Contributor
tuning: 1/2 step down

:27 x8
|---------------------------------------|
|---------------------------------------|
|--5-----7------------------------------|
|------0----0--3-0--5-0--0-5--5-7--7-7--|

:58 x4
|-------------------------------------------------------------|
|-------------------------------------------------------------|
|--5-----7----------------5-----7-----------------------------|
|------0----0--3-0--5-0-------0---0--3-0--5-0--5-5--7-7--7-0--|

1:27 x4
|------------------------------------|
|------------------------------------|
|---------5--------------------------|
|--7-7-7----5--5-5--5-5--5-5--5-4-3--|

1:42 x4
|---------------------------------------|
|---------------------------------------|
|--5-----7------------------------------|
|------0----0--3-0--5-0--0-5--5-7--7-7--|

1:57 x8
|-------------------------------------------------------------|
|-------------------------------------------------------------|
|--5-----7----------------5-----7-----------------------------|
|------0----0--3-0--5-0-------0---0--3-0--5-0--5-5--7-7--7-0--|

2:55 x4
|------------------------------------|
|------------------------------------|
|---------5--------------------------|
|--7-7-7----5--5-5--5-5--5-5--5-4-3--|

3:11 x4
|---------------------------------------|
|---------------------------------------|
|--5-----7------------------------------|
|------0----0--3-0--5-0--0-5--5-7--7-7--|

3:26 x4
|-------------------------------------------------------------|
|-------------------------------------------------------------|
|--5-----7----------------5-----7-----------------------------|
|------0----0--3-0--5-0-------0---0--3-0--5-0--5-5--7-7--7-0--|

3:54 x6
|------------------------------------|
|------------------------------------|
|---------5--------------------------|
|--7-7-7----5--5-5--5-5--5-5--5-4-3--|

4:17
|--------------------------------|
|--------------------------------|
|---------5----------------------|
|--7-7-7----5--5-5--5-6-7-8-7-6--|

4:21 x3
|------------------------------------|
|------------------------------------|
|---------5--------------------------|
|--7-7-7----5--5-5--5-5--5-5--5-4-3--|

4:33
|--------------------------------|
|--------------------------------|
|---------5----------------------|
|--7-7-7----5--5-5--5-6-7-8-7-6--|

4:37
|--------------|
|--------------|
|---------5----|
|--7-7-7----5--|
comments
We did not receive enough feedback on this tab! Please rate:
print report bad tab
1 2 3 4 5
I want to post or [tab]
guest
You may want to rate the tab now too:
select rating
Please do not post tabs as comments. Select "correction" instead!