Oops, an error
Loading. Please wait.

Dickeye Tab

version 2
version 2

Whole song

Interactive

2,598 views 3 this week
no commentswrite comment
1 2 3 4 5
please rate
add to favorites
launch autoscroll
font size
0
reset
how to read this tab
guitar tuner
Autoscroll
slow
fast
+/-
esc
set tempo
stop
Help us to improve Ultimate-Guitar.com Take our survey!
×
Author
jjhand 10,550
Jerry Cantrell - "Dickeye" + solos included!
From the Album "Boggy Depot"
Tuning:  down 1/2 step
tabbed by jjhand

The ninth bar of each solo is where vocals come in for the next verse. If there 
is anything I missed, please comment. Rate this tab too, please!

INTRO - play this riff 8 times
eb|-------------------|------------------------|
Bb|-------------------|------------------------|
Gb|--7------9\--------|------------------------|
Db|--7------9\------5-|-(5)----7---7-7/9-9-----|
Ab|--5----0-7\------5-|-(5)----7---7-7/9-9-----|
Eb|---------------0-3-|-(3)--0-5---5-5/7-7---0-|
      

Intro solo (1/2 way through intro)
eb|---------------------------|------------------------|-----------------|
Bb|-7----7-------7--------7---|-(7)-------7--9--7------|-----7---7-------|
Gb|-9b11-9b11----9b11-----9b11|-(9b)------7--9--7------|-----7---7-------|
Db|---------------------------|------7--9---------9--7-|-9-----9-----9-7-|
Ab|---------------------------|------------------------|-----------------|
Eb|---------------------------|------------------------|-----------------|

eb|--------------------|----------------------|-------------------------|
Bb|--------------------|----------10----------|-------------------------|
Gb|--------------------|-9b11r9b11-----9b11r9-|-7---7-------9-------7-9-|
Db|--------------------|----------------------|---9---9p7h9---9p7h9-----|
Ab|-9-8-7-----7--------|----------------------|-------------------------|
Eb|-------10----10--7~-|----------------------|-------------------------|

eb|------------7---------7---------7---------|
Bb|-----7h10p7---10p7h10---10p7h10---10p7h10-|
Gb|-9b11-------------------------------------|
Db|------------------------------------------|
Ab|------------------------------------------|
Eb|------------------------------------------|

eb|-7---------7----------------------------------|--------------|
Bb|---10p7h10---10p7h10-10b12-10p7h10-10p7-------|--------------|
Gb|----------------------------------------9-7h9-|-7~-----------|
Db|----------------------------------------------|--------------|
Ab|----------------------------------------------|--------------|
Eb|----------------------------------------------|--------------|


VERSE - play this 4 times, with slight palm muting
  4/4 time            3/4           4/4
eb|------------------|-------------|-----------------|-------------------------|
Bb|------------------|-------------|-----------------|-------------------------|
Gb|--7------9\-------|-------------|--7-----9\-------|-------------------------|
Db|--7------9\----5--|---7--7-7/9--|--7-----9\-----5-|-(5)----7--7--7/9--9-----|
Ab|--5----0-7\----5--|---7--7-7/9--|--5--0--7\-----5-|-(5)----7--7--7/9--9-----|
Eb|-------------0-3--|-0-5--5-5/7--|------------0--3-|-(3)-0--5--5--5/7--7--0--|
Note that total riff is 15 beats

PreChorus - Play Intro 
Lead Gtr - played on top of the stuff above 2x
eb|------------------|-------------|
Bb|----------x--9--7-|-(7\)--------|
Gb|----------x--9--7-|-(7\)--------|
Db|------------------|-------------|
Ab|------------------|-------------|
Eb|------------------|-------------|
                

CHORUS - play 4x
Rhythm
eb|--------------------------|------------------------------|
Bb|--------------------------|------------------------------|
Gb|--------------9--9--------|------------------------------|
Db|--9--9--9--9--9--9--7--7--|-7--7--7--7--7--7--7--7--7----|
Ab|--9--9--9--9--7--7--7--7--|-7--7--7--7--7--7--7--7--7----|
Eb|--7--7--7--7--------5--5--|-5--5--5--5--5--5--5--5--5----|
  |
  |Lead
eb|--------------------------|------------------------------|
Bb|-----------15-15----------|------------------------------|
Gb|--16-16----14-14----16-16-|-(16)----16\14------14---16---|
Db|--16-16----12-12----16-16-|-(16)----16\14------14---16---|
Ab|--14-14-------------14-14-|-(14)----14\12------12---14---|
Eb|--------------------------|------------------------------|


Solo 2 (before second Verse)
eb|-------------------|------------------------|-------------------|
Bb|-7------7------7---|-(7)-------7--9--7------|-------7---7-------|
Gb|-9b11---9b11---9b11|-(9b)------7--9--7------|-------7---7-------|
Db|-------------------|------7--9---------9--7-|-9-------9-----9-7-|
Ab|-------------------|------------------------|-------------------|
Eb|-------------------|------------------------|-------------------|

    PH
eb|------------------------|-----------------|----------------------------|
Bb|------------------------|-----------------|----------------17----19----|
Gb|------------------------|-----11------14--|-------16--/14-----16----16-|
Db|-------------------7-9--|--/9-----/12-----|---/14----------------------|
Ab|-*7b8r7--5---5-7/9------|-----------------|----------------------------|
Eb|-----------7------------|-----------------|----------------------------|

eb|-17------17----19----|-22b24r22--19-------------------|--------------|
Bb|------17----17----19-|-------------19------21---21b22-|--------------|
Gb|---------------------|---------------19--19--19-------|-19~~~~-------|
Db|---------------------|--------------------------------|--------------|
Ab|---------------------|--------------------------------|--------------|
Eb|---------------------|--------------------------------|--------------|


Play Verse Riffs again
Play Chorus again

Solo 3
eb|----------------|------------------|---------------------|
Bb|----------------|------------------|------------15b17r15-|
Gb|----------------|-----9b11r9-7---7-|---------16----------|
Db|--------7-9---7-|-9-7----------9---|------16-------------|
Ab|--5-7/9---------|------------------|--/14----------------|
Eb|----------------|------------------|---------------------|

eb|-12-------------------------|--------------------|----------------------|
Bb|----15-12-------------------|----9--9p7---9--9p7-|---9--9p7--9--7-------|
Gb|----------14b16r14-12-------|----9--9p7---9--9p7-|---9--9p7--9--7-------|
Db|----------------------14-12-|-/9--------9--------|-9--------------9-7-9-|
Ab|----------------------------|--------------------|----------------------|
Eb|----------------------------|--------------------|----------------------|

eb|-pb17r15------------|--------------------------|--------------|
Bb|--------------15-17-|-17b18-17b18--15h17p15----|-15-----------|
Gb|-----------16-------|----------------------16--|---16~--------|
Db|--------------------|--------------------------|--------------|
Ab|--------------------|--------------------------|--------------|
Eb|--------------------|--------------------------|--------------|

Play Verse again

Play Chorus again to end


KEY:

| /  slide up
| \  slide down
| h  hammer-on
| p  pull-off
| ~  vibrato
| +  harmonic
| b  string bend
| r  release of bent string
| pb pre-bend string before plucking
Suggest correction
What's this?
You can suggest a correction to this tab. Community and Mods will review your correction and vote to approve or reject it.
comments
We did not receive enough feedback on this tab! Please rate:
print report bad tab
1 2 3 4 5
guest
You may want to rate the tab now too:
select rating
Please do not post tabs as comments. Select "correction" instead!