Oops, an error
Loading. Please wait.

Leave Me Alone Bass Tab

version 1
version 1

Whole song

Interactive

287 views 1 this week
no commentswrite comment
1 2 3 4 5
please rate
add to favorites
launch autoscroll
font size
0
reset
guitar tuner
Autoscroll
slow
fast
+/-
esc
set tempo
stop
Help us to improve Ultimate-Guitar.com Take our survey!
×
Author
tuning:  1/2 step down

~ = let ring
h = hammer on

:00
G|---------------------------------------|  
D|---------------------------------------|  
A|-------------------7----7--5-----------| 
E|-0~------5-3-0-----------------5--3--0-|

:18 x6
G|-------------------------------------------------------------|
D|-------------------------------------------------------------|
A|-----------------------------------------------------0/2-----|
E|-0--0-0-0-0-0-0-0-0-0-0-7-5-3-0--0-0-0-0-0-0-0-0-0-0-----5-3-|

1:13
G|------------------------------------------------------------------|  
D|------------------------------------------------------------------|  
A|-----------------0/7-7-555-5-7-0-00-00---------0/7-7-55-5-7-------| 
E|-3-3-333-3-5-3-0-----------------------3-5-3-0--------------3-333-|

1:24
G|--------------------------------------------|  
D|--------------------------------------------|  
A|---------0/7-7-555-5-7-0-00-00--0/7-5-2-----| 
E|-3-5-3-0--------------------------------5-3-|

1:30 x6
G|-------------------------------------------------------------|
D|-------------------------------------------------------------|
A|-----------------------------------------------------0/2-----|
E|-0--0-0-0-0-0-0-0-0-0-0-7-5-3-0--0-0-0-0-0-0-0-0-0-0-----5-3-|

2:25
G|-------------------------------------------------------------------|  
D|-------------------------------------------------------------------|  
A|-----------------0/7-7-555-5-7-0-00-00---------0/7-77-55-5-7-------| 
E|-3-3-333-3-5-3-0-----------------------3-5-3-0---------------3-333-|

2:35
G|---------------------------------------------7~--------------7~-|  
D|----------------------------------------------------------------|  
A|---------0/7-7-555-5-7-0-000-------------7h9-------------7h9----| 
E|-3-5-3-0-----------------------5-3-0~--------------0~-----------|

3:00
G|--------------------------------|  
D|--------------------------------|  
A|-------0/5~----------0/5~----/0-| 
E|-0~------------0~---------------|

3:18 x5
G|-------------------------------------------------------------|
D|-------------------------------------------------------------|
A|-----------------------------------------------------0/2-----|
E|-0--0-0-0-0-0-0-0-0-0-0-7-5-3-0--0-0-0-0-0-0-0-0-0-0-----5-3-|

3:53
G|------------------------------------------------------------------|  
D|------------------------------------------------------------------|  
A|-----------------0/7-7-555-5-7-0-000-5---------0/7-7-55-5-7-------| 
E|-3-3-333-3-5-3-0-----------------------3-5-3-0--------------3-333-|

4:05
G|----------------------------------------------------------------|  
D|----------------------------------------------------------------|  
A|-----------0/7-750-000-0----------------------------------------| 
E|-333-5-3-5---------------3-5-3-5-3-0--0-0-0-0-0-0-0-0-0-0-7-5-3-|

4:16
G|----------------------------------------------------------------------|
D|----------------------------------------------------------------------|
A|------------------------0/2-----------------------0/7-7-555-5-7-0-000-|
E|-0--0-0-0-0-0-0-0-0-0-0-----5-3-0-3-3-333-3-5-3-0---------------------|

4:27
G|-----------------------------------------------------------------------|  
D|-----------------------------------------------------------------------|  
A|---------0/7-77-55-5-7---------------0/7-555-5-7-0-000-000-0/7-5-2-----|  
E|-3-5-3-0---------------3-333-3-5-3-0-------------------------------5-3-|

4:38 x2
G|-------------------------------------------------------------|
D|-------------------------------------------------------------|
A|-----------------------------------------------------0/2-----|
E|-0--0-0-0-0-0-0-0-0-0-0-7-5-3-0--0-0-0-0-0-0-0-0-0-0-----5-3-|

4:57
G|-----------------|  
D|-----------------|  
A|-------0/5~------| 
E|-0~------------0-|
Suggest correction
Give kudos to tab author, rate the tab!
1 2 3 4 5
comments
print report bad tab
guest
You may want to rate the tab now too:
select rating
Please do not post tabs as comments. Select "correction" instead!