Oops, an error
Loading. Please wait.

Leave Me Alone Tab

2,025 views 6 this week
1 commentread comment
1 2 3 4 5
please rate
add to favorites
launch autoscroll
font size
0
reset
how to read this tab
guitar tuner
Tab Pro tools
  • play this tab
  • loop segment
  • change instrument
  • show fretboard
  • metronome
×
Best way to learn
"Leave Me Alone"
Autoscroll
slow
fast
+/-
esc
set tempo
stop
#----------------------------------PLEASE NOTE---------------------------------#
#This file is the author's own work and represents their interpretation of the #
#song. You may only use this file for private study, scholarship, or research. #
#------------------------------------------------------------------------------#
#


From Sheanabean@aol.com Wed Apr 16 10:50:48 1997
Date: Sat, 29 Mar 1997 14:28:53 -0500 (EST)
From: Sheanabean@aol.com
To: guitar@olga.net
Subject: Leave Me Alone Tab

Song: Leave Me Alone
Artist: Jerry Cantrell
Album: Cable Guy Soundtrack
Written by: Jerry Cantrell


Tune down strings a half step: 1-Eb, 2-Bb, 3-Gb, 4-Db, 5-Ab, 6-Eb
     E  D                     C#          A C# A E  D                    C#
         A C# A
E|-----------------------------------------------------------------------------|
-------------------------------------------------------------------------------|
B|-----------------------------------------------------------------------------|
-------------------------------------------------------------------------------|
G|------7--7--7--7--7--7--4--6--6--6-----------------7--7--7--7--7--7--4--6--6-|
--6----------------------------------------------------------------------------|
D|------X--X--X--X--X--X--4--6--6--6-----------------X--X--X--X--X--X--4--6--6-|
--6----------------------------------------------------------------------------|
A|--2--5--5--5--5--5--5--4--4--4--4--0--4--0--2--5--5--5--5--5--5--4--4--4--4--|
-0--4--0-----------------------------------------------------------------------|
E|--0---------------------------------------------------0----------------------|
-------------------------------------------------------------------------------|

That's most of the song. I haven't figured out the chorus yet.

Transcribed by Sheanabean@aol.com
From Roselady@cinci.net Thu May 15 16:52:14 1997
Date: Thu, 03 Apr 1997 00:03:22 -0800
From: "Joan W. Johnson" 
To: guitar@olga.net
Subject: TAB: Leave me alone By: Jerry Cantrell

"Leave me Alone" by Jerry Cantrell
from The Cable Guy Soundtrack

Sean Kinney: Drums
Jerry Cantrell: Everything Else

    This song is a fine example of how Alice In Chains is going to sound
after Layne Staley dies.  This is a simple song, but it's very good, and
it shows how versatile Jerry Cantrell really is.

Tuning (as always for Jerry) is down 1/2 step

Intro / Verse

    Em
Eb:------------------------------------------------------------------|
Bb:------------------------------------------------------------------|
Gb:----7--6--2-2-2---------------------------------------------------|
Db:-2--7--6--2-2-2-2-------------------------------------------------|
Ab:-2--5--4--0-4-0-2-------------------------------------------------|
Eb:-0--------------0-------------------------------------------------|

Chorus:

Eb:-----------------------------------------------------------------------|
Bb:-----------------------------------------------------------------------|
Gb:-----------------------------------------------------------------------|
Db:-5---------------------------7----------------------------------5------|
Ab:-5---------------------------7----------------------------------5------|
Eb:-3---------------------------5----------------------------------3------|
   "Don't come over here when I say... Don't come over here when I
say..."

Play a 12 on the B string for the lead on the chorus.

For that little solo, lay the wah on heavy and mess with pinch harmonics
on the 5th fret of the Ab string.

Well that's about it. If you need anything by Pearl Jam, AIC or other
such
bands tabbed out, drop me a line at XKCW87B@prodigy.com.

                                        Later,
                                               JJ
comments
We did not receive enough feedback on this tab! Please rate:
print report bad tab
1 2 3 4 5
1 comment total.
+1 reply
Fluorescent wrote on August 16 2011, 01:51 pm

f*ck you for having no respect towards Layne! oh and btw, this is not the way Jerry plays it in the music video!

I want to post or [tab]
guest
You may want to rate the tab now too:
select rating
Please do not post tabs as comments. Select "correction" instead!