Oops, an error
Loading. Please wait.

Locked On Bass Tab

version 1
version 1

Whole song

Interactive

175 views 1 this week
no commentswrite comment
1 2 3 4 5
please rate
add to favorites
launch autoscroll
font size
0
reset
guitar tuner
Autoscroll
slow
fast
+/-
esc
set tempo
stop
Help us to improve Ultimate-Guitar.com Take our survey!
×
Author
guy7bmwm5 1,371
tuning:  1/2 step down

:03 x8
|------------------------------------------------------------------|
|-------------------------------------0--------------0-------------|
|----------------------3--3-3--3-0--3-----------0-3----------------|
|--1--1-1--1-1--1-1--1-------------------3---1----------3--1--1-1--|

1:06
|----------------------------------|
|----------------------------------|
|-----------------------3--3-------|
|--1--1-1--1-1--1-1--1-------3--3--|

1:16 x3
|-------------------------------------------|
|-------------------------------------------|
|---------------------2-3--3-3--3-3--3-2-0--|
|--0--0-0--0-0--0-0-------------------------|

1:32 x4
|------------------------------------------------------------------|
|-------------------------------------0--------------0-------------|
|----------------------3--3-3--3-0--3-----------0-3----------------|
|--1--1-1--1-1--1-1--1-------------------3---1----------3--1--1-1--|

2:04
|----------------------------------|
|----------------------------------|
|-----------------------3--3-------|
|--1--1-1--1-1--1-1--1-------3--3--|

2:13 softly
|---------------------------------------------|
|---------------------------------------------|
|---------------------0-2-3--3-3--3-3--3-2-0--|
|--0--0-0--0-0--0-0---------------------------|

2:18 x2 softly 
|-------------------------------------------|
|-------------------------------------------|
|---------------------2-3--3-3--3-3--3-2-0--|
|--0--0-0--0-0--0-0-------------------------|

2:27 x4
|-------------------------------------------|
|-------------------------------------------|
|---------------------2-3--3-3--3-3--3-2-0--|
|--0--0-0--0-0--0-0-------------------------|

2:45
|----------------------------|
|--------------0-------------|
|---------0-3----------------|
|--3---1----------3--1--1-1--|

2:48 x2
|------------------------------------------------------------------|
|-------------------------------------0--------------0-------------|
|----------------------3--3-3--3-0--3-----------0-3----------------|
|--1--1-1--1-1--1-1--1-------------------3---1----------3--1--1-1--|

3:04
|----------------------------------|
|----------------------------------|
|-----------------------3--3-------|
|--1--1-1--1-1--1-1--1-------3--3--|

3:09
|-------------------------------------------|
|-------------------------------------------|
|---------------------2-3--3-3--3-3--3-2-0--|
|--0--0-0--0-0--0-0-------------------------|

3:13
|---------------------------------------------|
|---------------------------------------------|
|---------------------2-3--3-3--3-3--3-5-3-2--|
|--0--0-0--0-0--0-0---------------------------|

3:18
|-----------------------------------------|
|-----------------------------------------|
|---------------------2-3--3-3--333--222--|
|--0--0-0--0-0--0-0-----------------------|

3:22
|-------------------------------------------|
|-------------------------------------------|
|---------------------2-3--3-3--3-3--3-2-0--|
|--0--0-0--0-0--0-0-------------------------|

3:27 x3
|------------------------------|
|-----------------10--9--7/0~--| let ring
|------------------------------|
|--5-5-5-5-5-5/7---------------|

3:40
|--------------------|
|--------------------|
|-----------------0--|
|--5-5-5-5-5-5/7-----|

3:45
|----------------------------|
|--------------0-------------|
|---------0-3----------------|
|--3---1----------3--1--1-1--|

3:48 x4
|------------------------------------------------------------------|
|-------------------------------------0--------------0-------------|
|----------------------3--3-3--3-0--3-----------0-3----------------|
|--1--1-1--1-1--1-1--1-------------------3---1----------3--1--1-1--|

4:20
|----------------------------------|
|----------------------------------|
|-----------------------3--3-------|
|--1--1-1--1-1--1-1--1-------3--3--|

4:24
|-------------------------------------------|
|-------------------------------------------|
|---------------------2-3--3-3--3-3--3-2-0--|
|--0--0-0--0-0--0-0-------------------------|

4:29
|---------------------------------------------|
|---------------------------------------------|
|---------------------2-3--3-3--3-3--3-5-3-2--|
|--0--0-0--0-0--0-0---------------------------|

4:34 x7
|-------------------------------------------|
|-------------------------------------------|
|---------------------2-3--3-3--3-3--3-2-0--|
|--0--0-0--0-0--0-0-------------------------|

5:01 x4
|------------------------------|
|-----------------10--9--7/0~--| let ring
|------------------------------|
|--5-5-5-5-5-5/7---------------|

5:14
|--------------------|
|--------------------|
|-----------------0--|
|--5-5-5-5-5-5/7-----|
Suggest correction new What's this?
You can suggest a correction to this tab. Community and Mods will review your correction and vote to approve or reject it.
comments
We did not receive enough feedback on this tab! Please rate:
print report bad tab
1 2 3 4 5
guest
You may want to rate the tab now too:
select rating
Please do not post tabs as comments. Select "correction" instead!