Oops, an error
Loading. Please wait.

Mothers Spinning In Her Grave Bass Tab

168 views 1 this week
no commentswrite comment
1 2 3 4 5
3 more votes to show rating
add to favorites
launch autoscroll
font size
0
reset
guitar tuner
Autoscroll
slow
fast
+/-
esc
set tempo
stop
Help us to improve Ultimate-Guitar.com Take our survey!
×
Author
tuning: 1/2 step down

:03 x10
|---------------------------------------|
|---------------------------------------|
|------------1-1--1-1------------1---1--|
|--2-2--2-2------------2-2--2-2---------|

:41 x4
|--------------------------------|
|--------------------------------|
|--------3-3---------------------|
|--2---0-----2----2-2--2-2--2-2--|

:55 x8
|---------------------------------------|
|---------------------------------------|
|------------1-1--1-1------------1---1--|
|--2-2--2-2------------2-2--2-2---------|

1:25 x3
|--------------------------------|
|--------------------------------|
|--------3-3---------------------|
|--2---0-----2----2-2--2-2--2-2--|

1:37
|--------------------------------|
|--------------------------------|
|--------3-3/9--9-9--9-9--9-8-7--|
|--2---0-------------------------|

1:41
|--------------------------------|
|--------------------------------|
|--------3-3---------------------|
|--2---0-----2----2-2--2-2--2-2--|

1:55
|--------------|
|--------------|
|-----1----3~--| let ring
|--2-----2-----|


1:57 x11
|--------------|
|--------------|
|----1-1---3~--| let ring
|--2-----2-----|

2:18 x4
|--------------------------------|
|--------------------------------|
|--------3-3---------------------|
|--2---0-----2----2-2--2-2--2-2--|

2:33 x6
|---------------------------------------|
|---------------------------------------|
|------------1-1--1-1------------1---1--|
|--2-2--2-2------------2-2--2-2---------|

2:55 x4
|--------------------------------|
|--------------------------------|
|--------3-3---------------------|
|--2---0-----2----2-2--2-2--2-2--|

3:10
|--------------------------------|
|--------------------------------|
|--------3-3/9--9-9--9-9--9-8-7--|
|--2---0-------------------------|

3:14
|--------------------------------|
|--------------------------------|
|--------3-3---------------------|
|--2---0-----2----2-2--2-2--2-2--|

3:18
|--------------------------------|
|--------------------------------|
|--------3-3/9--9-9--9-9--9-8-7--|
|--2---0-------------------------|

3:21 x3
|--------------------------------|
|--------------------------------|
|--------3-3---------------------|
|--2---0-----2----2-2--2-2--2-2--|

3:33
|--------------------------------|
|--------------------------------|
|--------3-3/9--9-9--9-9--9-8-7--|
|--2---0-------------------------|

3:36
|--------------------|
|--------------------|
|----------3---3-----|
|--2---0----------2--|
Suggest correction
Give kudos to tab author, rate the tab!
1 2 3 4 5
comments
print report bad tab
guest
You may want to rate the tab now too:
select rating
Wanna post a correction for this tab? Suggest correction