Oops, an error
Loading. Please wait.

My Song Bass Tab

version 2
version 2

Whole song

Interactive

262 views 6 this week
no commentswrite comment
1 2 3 4 5
please rate
add to favorites
launch autoscroll
font size
0
reset
guitar tuner
Autoscroll
slow
fast
+/-
esc
set tempo
stop
Help us to improve Ultimate-Guitar.com Take our survey!
×
Author
tuning: 1/2 step down

:18 x2
G|-----------------------------------------|
D|-----------------------------------------|
A|-3-55---------------3-55------------3333-|
E|------6666666666666------6666666666------|

:36 x2
G|-------------------------------------|
D|-------------55----------------------|
A|-3-55-----33----3-55-----------------|
E|------666------------66666666666-111-|

x5
G|-----------------------------------------|
D|-----------------------------------------|
A|-3-55---------------3-55------------3333-|
E|------6666666666666------6666666666------|

x2
G|-------------------------------------|
D|-------------55----------------------|
A|-3-55-----33----3-55-----------------|
E|------666------------66666666666-111-|

G|-----------------------------------------|
D|-----------------------------------------|
A|-3-55---------------3-55------------3333-|
E|------6666666666666------6666666666------|

G|---------------------------------------------------|
D|---------------------------------------------------|
A|-------------------------------------------------7-|
E|-3-0-3-5--0-5-3--0-3-5--0-5-3--0-3-5--0-5-3--0-3---|

G|----------------------------|
D|----------------------------|
A|----------------------------|
E|-3-0-3-5--0-5-3--0-3-5--0-5-|

x1                     
G|-------------------|  
D|--------------5----|  
A|----------------77-|   
E|-6--5-3-55--6------|  
 
G|----------------------------|
D|----------------------------|
A|----------------------------|
E|-3-0-3-5--0-5-3--0-3-5--0-5-|

x3
G|-------------------|  
D|--------------5----|  
A|----------------77-|  
E|-6--5-3-55--6------|

G|-------------------|
D|-------------------|
A|-------------------|
E|-6--5-3-55-5^5-3-0-|

x6
G|-----------------------------------------|
D|-----------------------------------------|
A|-3-55---------------3-55------------3333-|
E|------6666666666666------6666666666------|

x2
G|-------------------------------------|
D|-------------55----------------------|
A|-3-55-----33----3-55-----------------|
E|------666------------66666666666-111-|

G|-----------------------------------------|
D|-----------------------------------------|
A|-3-55---------------3-55------------3333-|
E|------6666666666666------6666666666------|

G|---------------------------------------------------|
D|---------------------------------------------------|
A|-------------------------------------------------7-|
E|-3-0-3-5--0-5-3--0-3-5--0-5-3--0-3-5--0-5-3--0-3---|

G|----------------------------|
D|----------------------------|
A|----------------------------|
E|-3-0-3-5--0-5-3--0-3-5--0-5-|

x3
G|-------------------|  
D|--------------5----|  
A|----------------77-|  
E|-6--5-3-55--6------|

G|-------------------|
D|-------------------|
A|-------------------|
E|-6--5-3-55-5^5-3-0-|
Suggest correction
Give kudos to tab author, rate the tab!
1 2 3 4 5
comments
print report bad tab
guest
You may want to rate the tab now too:
select rating
Please do not post tabs as comments. Select "correction" instead!