Oops, an error
Loading. Please wait.

My Song tab

version 4
version 4

Whole song

Interactive

16 views 1 this week
no commentswrite comment
1 2 3 4 5
3 more votes to show rating
add to favorites
×
Save as Personal and add changes to this tab that will be seen only by you. Learn more ›
×
You can save this tab as Personal to edit and correct it or add notes. All changes will be seen only by you. Learn more »
launch autoscroll
font size
0
reset
how to read this tab
guitar tuner
edit
Autoscroll
slow
fast
+/-
esc
set tempo
stop
[Intro]
eb|-----------------------------------|
Bb|-----------------------------------|
Gb|-----------------------------------|
Db|--5-7-7----------------------------| (x3)
Ab|--5-5-5-8-8-8-8-8-8-8-8-8-8-8-8-8--|
Eb|--------6-6-6-6-6-6-6-6-6-6-6-6-6--|

eb|------------------------------------|
Bb|------------------------------------|
Gb|------------------------------------|
Db|--5-7-7--------------------5-5-7-7--|
Ab|--5-5-5-8-8-8-8-8-8-8-8-8--3-3-3-3--|
Eb|--------6-6-6-6-6-6-6-6-6-----------|

[Verse]
(Guitar 1 00:18)
eb|-----------------------------------|
Bb|-----------------------------------|
Gb|-----------------------------------|
Db|--5-7-7----------------------------| 
Ab|--5-5-5-8-8-8-8-8-8-8-8-8-8-8-8-8--|
Eb|--------6-6-6-6-6-6-6-6-6-6-6-6-6--|

eb|------------------------------------|
Bb|------------------------------------|
Gb|------------------------------------|
Db|--5-7-7--------------------5-5-7-7--| (x2)
Ab|--5-5-5-8-8-8-8-8-8-8-8-8--3-3-3-3--|
Eb|--------6-6-6-6-6-6-6-6-6-----------|

(Guitar 2 00:18)
eb|------------------|
Bb|---------------3--|
Gb|---------------2--|
Db|-------0--3lb--0--|
Ab|--3lb-------------|
Eb|------------------|

(Guitar 2 00:27)
eb|-------------------------------------|
Bb|-------------------------------------|
Gb|---------------2h3------3p2--0--0h2--|
Db|-------0--3lb--0--------0-------0----|
Ab|--3lb--------------------------------|
Eb|-------------------------------------|

(Guitar 1 00:36)
eb|-------------------------------------------------------|
Bb|-------------------------------------------------------|
Gb|-------------------------------------------------------|
Db|--5-7-7-------5-5-7-7-5-7-7----------------------------| (x2)
Ab|--5-5-5-8-8-8-3-3-3-3-5-5-5-8-8-8-8-8-8-8-8-8-8-3-3-3--|
Eb|--------6-6-6---------------6-6-6-6-6-6-6-6-6-6-1-1-1--|

eb|-----------------------------------|
Bb|-----------------------------------|
Gb|-----------------------------------|
Db|--5-7-7----------------------------|
Ab|--5-5-5-8-8-8-8-8-8-8-8-8-8-3-3-3--|
Eb|--------6-6-6-6-6-6-6-6-6-6-1-1-1--|

(Guitar 2 00:36)
eb|--------1----------------------------------------------------|
Bb|----------------------------------------6--------------------|
Gb|-----2-----------2--------0-------------5b7bd5--3--2h3-------|
Db|--0-----------3--------2-----2-------3------------------3h5--|
Ab|-----------1--------3-----------3s5--1-----------------------|
Eb|-------------------------------------------------------------|

eb|--------1----------------------------------------------------|
Bb|-------------------------------------------------------------|
Gb|-----2-----------2--------0----------------------------------|
Db|--0-----------3--------2-----2-------3-----3------7--8--7lr--|
Ab|-----------1--------3-----------3s5--1-----1------8--8--8lr--|
Eb|-------------------------------------------------------------|

[Verse]
(Guitar 1 00:54)
eb|-----------------------------------|
Bb|-----------------------------------|
Gb|-----------------------------------|
Db|--5-7-7----------------------------| 
Ab|--5-5-5-8-8-8-8-8-8-8-8-8-8-8-8-8--|
Eb|--------6-6-6-6-6-6-6-6-6-6-6-6-6--|

eb|------------------------------------|
Bb|------------------------------------|
Gb|------------------------------------|
Db|--5-7-7--------------------5-5-7-7--| (x2)
Ab|--5-5-5-8-8-8-8-8-8-8-8-8--3-3-3-3--|
Eb|--------6-6-6-6-6-6-6-6-6-----------|

(Guitar 2 00:54)
eb|------------------|
Bb|---------------3--|
Gb|---------------2--|
Db|-------0--3lb--0--| (x2)
Ab|--3lb-------------|
Eb|------------------|

(Guitar 3 00:55)
eb|---------------5b6--6bd5--------|
Bb|-----------6--------------6-----|
Gb|--------7--------------------7--|
Db|--------------------------------| (x2)
Ab|--------------------------------|
Eb|--------------------------------|

(Guitar 1 01:11)
eb|-------------------------------------------------------|
Bb|-------------------------------------------------------|
Gb|-------------------------------------------------------|
Db|--5-7-7-------5-5-7-7-5-7-7----------------------------| (x2)
Ab|--5-5-5-8-8-8-3-3-3-3-5-5-5-8-8-8-8-8-8-8-8-8-8-3-3-3--|
Eb|--------6-6-6---------------6-6-6-6-6-6-6-6-6-6-1-1-1--|

eb|-----------------------------------|
Bb|-----------------------------------|
Gb|-----------------------------------|
Db|--5-7-7----------------------------|
Ab|--5-5-5-8-8-8-8-8-8-8-8-8-8-3-3-3--|
Eb|--------6-6-6-6-6-6-6-6-6-6-1-1-1--|

(Guitar 2 01:11)
eb|--------1----------------------------------------------------|
Bb|----------------------------------------6--------------------|
Gb|-----2-----------2--------0-------------5b7bd5--3--2h3-------|
Db|--0-----------3--------2-----2-------3------------------3h5--|
Ab|-----------1--------3-----------3s5--1-----------------------|
Eb|-------------------------------------------------------------|

eb|--------1----------------------------------------------------|
Bb|-------------------------------------------------------------|
Gb|-----2-----------2--------0----------------------------------|
Db|--0-----------3--------2-----2-------3-----3------7--8--7lr--|
Ab|-----------1--------3-----------3s5--1-----1------8--8--8lr--|
Eb|-------------------------------------------------------------|

[Chorus]
(Guitar 1 01:30)
eb|---------------------------------------------------------------------------|
Bb|---------------------------------------------------------------------------|
Gb|---------------------------------------------------------------------------|
Db|---------------------------------------------------------------------------|
Ab|---------------------------------------------------------------------------|
Eb|--3--0--3--5~--0--5--3~--0--3--5~--0--5--3~--0--3--5~--0--5--3~--0--3--5~--|

(Guitar 2 01:30)
eb|---------------------------------------------------------------------------|
Bb|---------------------------------------------------------------------------|
Gb|---------------------------------------------------------------------------|
Db|---------------------------------------------------------------------------|
Ab|--------0--4~-----0--2~-----0--4~-----0--2~-----0--4~-----0--2~-----0--4~--|
Eb|--x--3---------3---------3---------3---------3---------3---------3---------|

(Guitar 1 + 2 01:38)
eb|--12-12-12-12-12-12--|
Bb|--12-12-12-12-12-12--|
Gb|--12-12-12-12-12-12--|
Db|---------------------|
Ab|---------------------|
Eb|---------------------|

(Guitar 3 01:37)
eb|--------------------------------------|
Bb|---------15---------------------------|
Gb|--14b16------16bd14---------12h14p12--|
Db|--------------------------------------|
Ab|--------------------------------------|
Eb|--------------------------------------|

(Guitar 1 01:39)
eb|-------------------------------------------------------------------0--|
Bb|-------------------------------------------------------------------0--|
Gb|-------------------------------------------------------------------4--|
Db|-------------------------------------------------------------------5--|
Ab|----------------------------------------------------------------------|
Eb|--3--0--3--5~--0--5--3~--0--3--5~--3--5--3--5s6--5--3--5--5--5--3-----|

(Guitar 2 01:39)
eb|--------------------------------------------------------------------0--|
Bb|--------------------------------------------------------------------0--|
Gb|--------------------------------------------------------------------4--|
Db|--------------------------------------------------------------------5--|
Ab|---------0--4~-----0--2~-----0--4~-----------4s5--4--2--4--4--4--2-----|
Eb|---x--3---------3---------3---------3--5--3----------------------------|

(Guitar 1 + 2)
eb|--12-12-12-12-12-12--|
Bb|--12-12-12-12-12-12--|
Gb|--12-12-12-12-12-12--|
Db|---------------------| (x2)
Ab|---------------------|
Eb|---------------------|

(Guitar 1 01:56)
eb|-------------------------0--12-12-12-12-12-12--|
Bb|-------------------------0--12-12-12-12-12-12--|
Gb|-------------------------4--12-12-12-12-12-12--|
Db|-------------------------5---------------------| (x2)
Ab|-----------------------------------------------|
Eb|--5s6--5--3--5--5--5--3------------------------|

(Guitar 2 01:56)
eb|-------------------------0--12-12-12-12-12-12--|
Bb|-------------------------0--12-12-12-12-12-12--|
Gb|-------------------------4--12-12-12-12-12-12--|
Db|-------------------------5---------------------| (x2)
Ab|--4s5--4--2--4--4--4--2------------------------|
Eb|-----------------------------------------------|

(Guitar 1 02:04)
eb|-------------------------0--|
Bb|-------------------------5--|
Gb|-------------------------4--|
Db|-------------------------2--|
Ab|----------------------------|
Eb|--5s6--5--3--5--5--5--3-----|

(Guitar 2 02:04)
eb|-------------------------0--|
Bb|-------------------------5--|
Gb|-------------------------4--|
Db|-------------------------2--|
Ab|--4s5--4--2--4--4--4--2-----|
Eb|----------------------------|

[Break]
(Guitar 1 02:09)
Bb|-----------------------------------|
Gb|-----------------------------------|
Db|--5-7-7----------------------------|
Ab|--5-5-5-8-8-8-8-8-8-8-8-8-8-8-8-8--|
Eb|--------6-6-6-6-6-6-6-6-6-6-6-6-6--|

eb|------------------------------------|
Bb|------------------------------------|
Gb|------------------------------------|
Db|--5-7-7--------------------5-5-7-7--| (x2)
Ab|--5-5-5-8-8-8-8-8-8-8-8-8--3-3-3-3--|
Eb|--------6-6-6-6-6-6-6-6-6-----------|

(Guitar 3 02:19)
eb|--13------------13--------------------------------------------|
Bb|------15------------15------15s17---------------------15------|
Gb|----------14------------14---------17-------------14------14--|
Db|---------------------------------------17--15s17--------------|
Ab|--------------------------------------------------------------|
Eb|--------------------------------------------------------------|

eb|------------------------------|
Bb|----------13------15----------|
Gb|------12------12------14------|
Db|--15----------------------15--|
Ab|------------------------------|
Eb|------------------------------|

[Verse]
(Guitar 1 02:28)
Bb|-----------------------------------|
Gb|-----------------------------------|
Db|--5-7-7----------------------------|
Ab|--5-5-5-8-8-8-8-8-8-8-8-8-8-8-8-8--|
Eb|--------6-6-6-6-6-6-6-6-6-6-6-6-6--|

eb|------------------------------------|
Bb|------------------------------------|
Gb|------------------------------------|
Db|--5-7-7--------------------5-5-7-7--| (x2)
Ab|--5-5-5-8-8-8-8-8-8-8-8-8--3-3-3-3--|
Eb|--------6-6-6-6-6-6-6-6-6-----------|

(Guitar 2 02:28)
eb|------------------|------------------|---------------|
Bb|---------------3--|------------------|---------------|
Gb|---------------2--|---------------3--|--3p2--0--0h2--|
Db|-------0--3lb--0--|-------0--3lb--3--|--0-------0----|
Ab|--3lb-------------|--3lb----------5--|---------------|
Eb|------------------|------------------|---------------|

(Guitar 1 02:45)
eb|-------------------------------------------------------|
Bb|-------------------------------------------------------|
Gb|-------------------------------------------------------|
Db|--5-7-7-------5-5-7-7-5-7-7----------------------------| (x2)
Ab|--5-5-5-8-8-8-3-3-3-3-5-5-5-8-8-8-8-8-8-8-8-8-8-3-3-3--|
Eb|--------6-6-6---------------6-6-6-6-6-6-6-6-6-6-1-1-1--|

eb|-----------------------------------|
Bb|-----------------------------------|
Gb|-----------------------------------|
Db|--5-7-7----------------------------|
Ab|--5-5-5-8-8-8-8-8-8-8-8-8-8-3-3-3--|
Eb|--------6-6-6-6-6-6-6-6-6-6-1-1-1--|

(Guitar 2 02:45)
eb|--------1----------------------------------------------------|
Bb|----------------------------------------6--------------------|
Gb|-----2-----------2--------0-------------5b7bd5--3--2h3-------|
Db|--0-----------3--------2-----2-------3------------------3h5--|
Ab|-----------1--------3-----------3s5--1-----------------------|
Eb|-------------------------------------------------------------|

eb|--------1--------------------------------------------|
Bb|-----------------------------------------------------|
Gb|-----2-----------2--------0--------------------------|
Db|--0-----------3--------2-----2-------3-----3------7--|
Ab|-----------1--------3-----------3s5--1-----1------8--|
Eb|-----------------------------------------------------|

[Chorus]
(Guitar 1 03:04)
eb|---------------------------------------------------------------------------|
Bb|---------------------------------------------------------------------------|
Gb|---------------------------------------------------------------------------|
Db|---------------------------------------------------------------------------|
Ab|---------------------------------------------------------------------------|
Eb|--3--0--3--5~--0--5--3~--0--3--5~--0--5--3~--0--3--5~--0--5--3~--0--3--5~--|

(Guitar 2 03:04)
eb|---------------------------------------------------------------------------|
Bb|---------------------------------------------------------------------------|
Gb|---------------------------------------------------------------------------|
Db|---------------------------------------------------------------------------|
Ab|--------0--4~-----0--2~-----0--4~-----0--2~-----0--4~-----0--2~-----0--4~--|
Eb|--x--3---------3---------3---------3---------3---------3---------3---------|

(Guitar 1 + 2 03:11)
eb|--12-12-12-12-12-12--|
Bb|--12-12-12-12-12-12--|
Gb|--12-12-12-12-12-12--|
Db|---------------------|
Ab|---------------------|
Eb|---------------------|

(Guitar 1 03:13)
eb|-------------------------------------------------------------------0--|
Bb|-------------------------------------------------------------------0--|
Gb|-------------------------------------------------------------------4--|
Db|-------------------------------------------------------------------5--|
Ab|----------------------------------------------------------------------|
Eb|--3--0--3--5~--0--5--3~--0--3--5~--3--5--3--5s6--5--3--5--5--5--3-----|

(Guitar 2 03:13)
eb|--------------------------------------------------------------------0--|
Bb|--------------------------------------------------------------------0--|
Gb|--------------------------------------------------------------------4--|
Db|--------------------------------------------------------------------5--|
Ab|---------0--4~-----0--2~-----0--4~-----------7s8--7--5--7--7--7--5-----|
Eb|---x--3---------3---------3---------3--5--3----------------------------|

(Guitar 1 + 2)
eb|--12-12-12-12-12-12--|
Bb|--12-12-12-12-12-12--|
Gb|--12-12-12-12-12-12--|
Db|---------------------| (x2)
Ab|---------------------|
Eb|---------------------|

(Guitar 1 03:22)
eb|-------------------------0--12-12-12-12-12-12--|
Bb|-------------------------0--12-12-12-12-12-12--|
Gb|-------------------------4--12-12-12-12-12-12--|
Db|-------------------------5---------------------| (x2)
Ab|-----------------------------------------------|
Eb|--5s6--5--3--5--5--5--3------------------------|

(Guitar 2 03:22)
eb|-------------------------0--12-12-12-12-12-12--|
Bb|-------------------------0--12-12-12-12-12-12--|
Gb|-------------------------4--12-12-12-12-12-12--|
Db|-------------------------5---------------------| (x2)
Ab|--4s5--4--2--4--4--4--2------------------------|
Eb|-----------------------------------------------|

(Guitar 1 03:25)
eb|---------------------------------------------------------------------------|
Bb|---------------------------------------------------------------------------|
Gb|---------------------------------------------------------------------------|
Db|---------------------------------------------------------------------------|
Ab|---------------------------------------------------------------------------|
Eb|--3--0--3--5~--0--5--3~--0--3--5~--0--5--3~--0--3--5~--0--5--3~--0--3--5~--|

(Guitar 2 03:25)
eb|---------------------------------------------------------------------------|
Bb|---------------------------------------------------------------------------|
Gb|---------------------------------------------------------------------------|
Db|---------------------------------------------------------------------------|
Ab|--------0--4~-----0--2~-----0--4~-----0--2~-----0--4~-----0--2~-----0--4~--|
Eb|--x--3---------3---------3---------3---------3---------3---------3---------|

(Guitar 1 + 2 03:33)
eb|--12-12-12-12-12-12--|
Bb|--12-12-12-12-12-12--|
Gb|--12-12-12-12-12-12--|
Db|---------------------|
Ab|---------------------|
Eb|---------------------|

(Guitar 1 03:34)
eb|-------------------------------------------------------------------0--|
Bb|-------------------------------------------------------------------0--|
Gb|-------------------------------------------------------------------4--|
Db|-------------------------------------------------------------------5--|
Ab|----------------------------------------------------------------------|
Eb|--3--0--3--5~--0--5--3~--0--3--5~--3--5--3--5s6--5--3--5--5--5--3-----|

(Guitar 2 03:34)
eb|--------------------------------------------------------------------0--|
Bb|--------------------------------------------------------------------0--|
Gb|--------------------------------------------------------------------4--|
Db|--------------------------------------------------------------------5--|
Ab|---------0--4~-----0--2~-----0--4~-----------4s5--4--2--4--4--4--2-----|
Eb|---x--3---------3---------3---------3--5--3----------------------------|

(Guitar 1 + 2 03:41)
eb|--12-12-12-12-12-12--|
Bb|--12-12-12-12-12-12--|
Gb|--12-12-12-12-12-12--|
Db|---------------------| (x2)
Ab|---------------------|
Eb|---------------------|

(Guitar 1 03:42)
eb|-------------------------0--12-12-12-12-12-12--|
Bb|-------------------------0--12-12-12-12-12-12--|
Gb|-------------------------4--12-12-12-12-12-12--|
Db|-------------------------5---------------------| (x2)
Ab|-----------------------------------------------|
Eb|--5s6--5--3--5--5--5--3------------------------|

(Guitar 2 03:42)
eb|-------------------------0--12-12-12-12-12-12--|
Bb|-------------------------0--12-12-12-12-12-12--|
Gb|-------------------------4--12-12-12-12-12-12--|
Db|-------------------------5---------------------| (x2)
Ab|--4s5--4--2--4--4--4--2------------------------|
Eb|-----------------------------------------------|

(Guitar 1 03:51)
eb|-------------------------0--|
Bb|-------------------------5--|
Gb|-------------------------4--|
Db|-------------------------2--|
Ab|----------------------------|
Eb|--5s6--5--3--5--5--5--3-----|

(Guitar 2 03:51)
eb|-------------------------0--|
Bb|-------------------------5--|
Gb|-------------------------4--|
Db|-------------------------2--|
Ab|--4s5--4--2--4--4--4--2-----|
Eb|----------------------------|


************************************

| b  Bend
| h  Hammer-on
| p  Pull-off
| ~  Vibrato
| x  Dead note

************************************
Suggest correction
Creating personal tab
Creating personal tab
You can edit any tab online and save it as your Personal.

You can edit, replace or remove any tab part or add personal notes – all changes will be seen only by you.

Personal tabs can be accessed anytime from any device, even offline.
Learn more »
Give kudos to tab author, rate the tab!
1 2 3 4 5
comments
print report bad tab
guest
You may want to rate the tab now too:
select rating
Wanna post a correction for this tab? Suggest correction