Oops, an error
Loading. Please wait.

Pig Charmer Tab

715 views 1 this week
no commentswrite comment
1 2 3 4 5
excellent!
x 3
add to favorites
launch autoscroll
font size
0
reset
how to read this tab
guitar tuner
Autoscroll
slow
fast
+/-
esc
set tempo
stop
Help us to improve Ultimate-Guitar.com Take our survey!
×
Author
Pig Charmer

Jerry Cantrell

Tabbed by:Brownbear93

Half step down


Intro:
G1
|-----------------------------------------------------|
|-----------------------------------------------------|
|-----------------------------------------------------|
|---9--------7--------4-----/9-9--------7--------2----|
|---9--------7--------4-----/9-9--------7--------2----|
|---7--------5--------2-----/7-7--------5--------0----|
|
|G2
|-----------------------------------------------------|
|-----------------------------------------------------|
|-----------------------------------------------------|
|------------------------------------------------6b---|
|-----------------------------------------------------|
|-----------------------------------------------------|

G1
|-----------------------------------------------------|
|--------------------3-2-0----------------------------|
|----0---0-----0---0-------3--3br-----3~--------------|
|--4---4-----4---4------------------4-----------------|
|-----------------------------------------------------|
|-----------------------------------------------------|
|
|G2
|-----------------------------------------------------|
|-----------------------------------------------------|
|-----------------------------------------------------|
|-----------------------------------------------------|
|----x/----------------x/-----------------------------|
|----x/----------------x/-----------------------------|


Verse Riff
G1
|---------------------------------------------------------------------------|
|---------------------------------------------------------------------------|
|---------------------------------------------------------------------------|
|---------------------------------------------------------------------------|
|--4-4---4/9-----4/7--4-4---4/9-----4/7--4-4---4/9-----4/7--4-4-2-3-4-9-8-7-|
|--2-2-0-2/7---0-2/5--2-2-0-2/7---0-2/5--2-2-0-2/7---0-2/5--2-2-0-1-2-7-6-5-|
PM......       .      .....       .      .....       .      ...............

G2
|---------------------------------------------------------------------------|
|-------------------------------5-5---5--5-5--------------------------------|
|---4b----2/4\2~--------2-4/6-------6--------6/4-2--------------------------|
|-------------------2h4----------------------------4---2h4------------------|
|----------------------------------------------------------2~---------------|
|---------------------------------------------------------------------------|

Verse 

Well I'm a pig charmer, lie in filth getting off
I make my bed in a wallow, lackey, fill my trough
Digging through garbage bubble fried a pork rind
I pick and save all my scabs to serve up dinner time

Chorus

|---------------------------------------------------------------|
|---------------------------------------------------------------|
|---------------------------------------------------------------|
|--9----7----4-------------------9----7----4--------------------|
|--9----7----4----2-3-4--4-2-4---9----7----4----2-3-4--4-2-4----|
|--7----5----2----0-1-2--2-0-2---7----5----2----0-1-2--2-0-2----|
PM                ............                  ............

|---------------------------------------------------------------|
|---------------------------------------------------------------|
|---------------------------------------------------------------|
|--9----7----4-------------------9----7----2--------------------|
|--9----7----4----2-3-4--4/7\6---9----7----2--------------------|
|--7----5----2----0-1-2--2/5\4---7----5----0--------------------|

And I say welcome to my sty
Throw my shoe, turn the light out
Come on in, get high
Don't mind the piss-filled bottles
Hack and cough, I write
Peppered walls I spit out
And my future looks bright... swelter geek inside
 

|---------------------------------------------------------------|
|---------------------------------------------------------------|
|-6h7p6---\2---/4--6----/9-----4/5/6----------------------------|
|------------------4----/7-----2/3/4-----2----------------------|
|----------------------------------------0------2b--------------|
|---------------------------------------------------------------|

G1 plays verse riff
G2
|---------------------------------------------------------------|
|---------------------------5-5----5--5-5-----------------------|
|--4b---2h4p2~--------2-4/6-----6---------6/4-2---2-----4b------|
|----------------2h4----------------------------4---2h4---------|
|---------------------------------------------------------------|
|---------------------------------------------------------------|

|-----------------------------|
|----------------------7b-----|
|--2h4p2---2b-----------------|
|--------4----4---------------|
|-----------------------------|
|-----------------------------|

Verse
Way past halitosis, Mr. Yuk Mouth I slay
It turns out he's a big pussy, Satan hoof had its way
Two months no shower, cigarette methane fog
And if you ever need it I gave mean horse hog
 
Chorus
And I say welcome to my sty
Throw my shoe, turn the light out
Come on in, get high
Don't mind the piss-filled bottles
Hack and cough, I write
Peppered walls I spit out
And my future looks bright... pretty sure I'm gonna fry
This time I hope I'm wrong, not right
 
Bridge
G1
|---------------------------------------------------------------------------|
|---------------------------------------------------------------------------|
|---------------------------------------------------------------------------|
|---------------------------------------------------------------------------|
|--4-4-2-3-4-4/9-8-7---4-5-4-4/8-8-7-5---4-4-2-3-4-4/9-8-7---4-5-4-5-4-4/8-7|
|--2-2-0-1-2-2/7-6-5---2-3-2-2/6-6-5-3---2-2-0-1-2-2/7-6-5---2-3-2-3-2-2/6-5|

G2
|---------------------------------------|
|------3-2-0-----------------3-2-0------|
|----0--------3b-----3r----0-------3b---|
|--4---------------------4--------------|
|---------------------------------------|
|---------------------------------------|

G3
|---------------------------------------------------|
|---------------------------------------------------|
|---------------------------7-7-6-7/9-9-9\7-6-------|
|-4-4-4-4-4-4-4-4-4-4-4-4-4-------------------4-4---|
|---------------------------------------------------|
|---------------------------------------------------|
Man I don't really want to die
Pretty sure I'm gonna fry
And I don't really want to die
Pretty sure I'm gonna fry
And my future looks bright
 
|--------------------------------|
|--------------------------------|
|--------------------------------|
|--11h12p11-----2------2---4b----|
|------------4-----6-------------|
|--------------------------------|


| /   slide up
| \   slide down
| h   hammer-on
| p   pull-off
| ~   vibrato
| +   harmonic
| x   Mute note
| b   Bend
| pb  Pre-bend
| br  Bend release
| pbr Pre-bend release
| brb Bend release bend
Suggest correction
Give kudos to tab author, rate the tab!
1 2 3 4 5
comments
print report bad tab
guest
You may want to rate the tab now too:
select rating
Please do not post tabs as comments. Select "correction" instead!