Oops, an error
Loading. Please wait.

Mama Let Him Play Tab

version 1
version 1

Whole song

Interactive

8,148 views 15 this week
2 commentsread comments
1 2 3 4 5
please rate
add to favorites
launch autoscroll
font size
0
reset
how to read this tab
guitar tuner
Tab Pro tools
  • play this tab
  • loop segment
  • change instrument
  • show fretboard
  • metronome
×
Best way to learn
"Mama Let Him Play"
Autoscroll
slow
fast
+/-
esc
set tempo
stop
E-------------------------------------------------------|
B--------2---3-2-------2---3--3-------------------------|
G----2h4---2-----4-2-4-----2--2-------------------------|
D-------------------------------------------------------|
A-------------------------------------------------------|
E-------------------------------------------------------|

E-------------------------------------------------------|
B--------2---3-2----------------------------------------|
G----2h4---2-----4-2-4p2--------------------------------|
D-------------------------------------------------------|
A-------------------------------------------------------|
E-------------------------------------------------------|

REPEAT INTRO

Progression A-G-D

First Solo:
E-------------------------------------------------------|
B-------------------------------------------------------|
G-------------------------------------------------------|
D---b2-0----------b2-0------------0----------0----------|
A--------4-2-0-2-------4p2-0-2-4----4-~2/0-----4-~2/0---|
E------------------------------------------3----------3-|

E--------------------------------------------0----------|
B-----------------------------------------12------------|
G--------------------------------------11---------------|
D---0-----------0---------------------------------------|
A-----4-~2/0------4-~2/0---0-2-0------------------------|
E------------3-----------3------------------------------|

E-------------------------------------------------------|
B-------------------------------------------------------|
G-------------------------------------------------------|
D---b2-0----------b2-0------------0----------0----------|
A--------4-2-0-2-------4p2-0-2-4----4-~2/0-----4-~2/0---|
E------------------------------------------3----------3-|

E-------------------------------------------------------|
B------------------------------------------2-0----------|
G--------------------------------------2/4--------------|
D---0-----------0---------------------------------------|
A-----4-~2/0------4-~2/0---0-2-0------------------------|
E------------3-----------3------------------------------|


Ok so this is my first tab and I always thought people were using the "I'm tired of
stuff as an excuse b/c they don't really know the rest of the song, but I REALLY am 
of
this. I don't know all of the remaining solo, but I can get it in the ball park. I'm 
at this point. Be generous on the reviews, as I am CONFIDENT this is by far the
tab on the net for this song; however, I am aware it's not complete.

droy22@hotmail.com

12/6/2007
comments
We did not receive enough feedback on this tab! Please rate:
print report bad tab
1 2 3 4 5
2 comments total.
0 reply
vtrf4 wrote on June 20 2008, 01:37 am

sounds great!

0 reply
loonybin wrote on August 13 2009, 12:10 am

FINISH THE TAB

please

I want to post or [tab]
guest
You may want to rate the tab now too:
select rating
Please do not post tabs as comments. Select "correction" instead!