Oops, an error
Loading. Please wait.

Mama Let Him Play Tab

version 2
version 2

Whole song

Interactive

8,341 views 24 this week
1 commentread comment
1 2 3 4 5
accurate
x 4
add to favorites
launch autoscroll
font size
0
reset
how to read this tab
guitar tuner
Tab Pro tools
  • play this tab
  • loop segment
  • change instrument
  • show fretboard
  • metronome
×
Best way to learn
"Mama Let Him Play"
Autoscroll
slow
fast
+/-
esc
set tempo
stop
Contributor
Difficulty
intermediate
Tabbed by AxeCrazy
Note: I will be taking this tab down soon.
ALSO, I KNOW THIS AS I LEARNT FROM SOMEONE WHO IS IN A BAND WITH JERRY DOUCETTE 
RIGHT NOW, SO IT IS 100% CORRECT. ONLY CORRECT ONE ON THE INTERNET.

INTRO/CHORUS

E------------------------------------------------------------| 
B---3-5---7-5-3---3-5------------3-5---7-5-3-5-----3------3--| 
G-6-4-6-6-7-6-4-6-4-6-6-7-7----6-4-6-6-7-6-4-6---4------2----| X2
D-7-----7-------7-----7-7-7-7--7-----7---------5------4------|
A-----------------------5-5-7--------------------------------|
E---------------------------5--------------------------------|

VERSE 1

E----------------------------------------------------------------|
B----------------------------------------------------------------|
G----------------------------------------------------------------|
D----------------------------------------------------------------|
A-7-7-9-7-7-7-9-7-7-7-9-7-7-7-9-7-5-5-7-5-5-5-7-4-5-5-7-5-5-5-7--|
E-5-5-5-5-5-5-5-5-5-5-5-5-5-5-5-5-3-3-3-3-3-3-3-3-3-3-3-3-3-3-3--|

VERSE 1

E--------------------------------------------------------------------|
B--------------------------------------------------------------------|
G--------------------------------------------------------------------|
D-6-7-7-9-7-7-7-9-6-7-7-9-7-7-7-9-7----------------------------------|
A-4-5-5-5-5-5-5-5-4-5-5-5-5-5-5-5-5-7-7-9-7-7-7-9-7-7-7-9-7-7-7-9-7--|
E-----------------------------------5-5-5-5-5-5-5-5-5-5-5-5-5-5-5-5--|

VERSE 1

E----------------------------------------------------------------|
B----------------------------------------------------------------|
G----------------------------------------------------------------|
D----------------------------------------------------------------|
A-7-7-9-7-7-7-9-7-7-7-9-7-7-7-9-7-5-5-7-5-5-5-7-4-5-5-7-5-5-5-7--|
E-5-5-5-5-5-5-5-5-5-5-5-5-5-5-5-5-3-3-3-3-3-3-3-3-3-3-3-3-3-3-3--|

VERSE 1

E--------------------------------------------------------------------|
B--------------------------------------------------------------------|
G--------------------------------------------------------------------|
D-6-7-7-9-7-7-7-9-6-7-7-9-7-7-7-9-7----------------------------------|
A-4-5-5-5-5-5-5-5-4-5-5-5-5-5-5-5-5-7-7-9-7-7-7-9-7------------------|
E-----------------------------------5-5-5-5-5-5-5-5------------------|

Ending to each verse

E-3-3-3-2-2-2---------------|  E-3-3-3-2-2-2-------------------------------|
B-3-3-3-3-3-3---------------|  B-3-3-3-3-3-3-------------------------------|
G-0-0-0-2-2-2---------------|  G-0-0-0-2-2-2-------------------------------|
D-0-0-0-0-0-0-2-2-4-2-2-2-4-|  D-0-0-0-0-0-0---4-4-4-4-4-4-4-4-4-4-4-4-4-7-|
A-2-2-2-------0-0-0-0-0-0-0-|X3A-2-2-2-------0-4-4-4-4-4-4-4-4-4-4-4-4-4-7-|
E-3-3-3---------------------|  E-3-3-3---------2-2-2-2-2-2-2-2-2-2-2-2-2-5-|

INTRO/CHORUS

E------------------------------------------------------------| 
B---3-5---7-5-3---3-5------------3-5---7-5-3-5-----3------3--| 
G-6-4-6-6-7-6-4-6-4-6-6-7-7----6-4-6-6-7-6-4-6---4------2----|
D-7-----7-------7-----7-7-7-7--7-----7---------5------4------| X2
A-----------------------5-5-7--------------------------------|
E---------------------------5--------------------------------|

VERSE 2

E-0-00-0000-0-00-0000-3-33-3333-3-33-3333-2-22-2222-3-33-2222|
B-2-22-2222-2-22-2222-3-33-3333-3-33-3333-3-33-3333-3-33-3333|
G-2-22-2222-2-22-2222-0-00-0000-0-00-0000-2-22-2222-2-22-2222|
D-2---------2---------0---------0---------0---------0--------|
A-0---------0---------2---------2----------------------------|
E---------------------3---------3----------------------------|

VERSE 2

E-0-00-0000-0-00-0000--|
B-2-22-2222-2-22-2222--|
G-2-22-2222-2-22-2222--|
D-2-22-2222-2-22-2222--|
A-0---------0----------|
E----------------------| X2, Add verse ending (see above)


INTRO/CHORUS

E------------------------------------------------------------| 
B---3-5---7-5-3---3-5------------3-5---7-5-3-5-----3------3--| 
G-6-4-6-6-7-6-4-6-4-6-6-7-7----6-4-6-6-7-6-4-6---4------2----|
D-7-----7-------7-----7-7-7-7--7-----7---------5------4------| X2
A-----------------------5-5-7--------------------------------|
E---------------------------5--------------------------------|

VERSE 3

 A
Mama let him play, let him play,

 G
Mama let him play, let him play,

 D
Mama let him say, what he wants to say, yeah

 A
Mama let him play, let him play,

 G
Mama let him play, let him play,
 
 D
Mama let him say, what he wants to say,

 G              D           A
Let him play some rock and roll,

 G
Let him play some rock and roll,


Let him play some rock and roll.
comments
print report bad tab
1 comment total.
0 reply
thatsampsonguy wrote on September 3 2012, 01:16 pm

Why is this still up and where is the lead break. I don't think it is 100% correct because it is missing parts like the lead.

Maybe the part of the song you posted is 100% correct but not the entire song.

Was your buddy a road musician, session musician or hired for a few nights?

I want to post or [tab]
guest
You may want to rate the tab now too:
select rating
Please do not post tabs as comments. Select "correction" instead!