Oops, an error
Loading. Please wait.

When Youre Hot Youre Hot Bass Tab

896 views 3 this week
no commentswrite comment
1 2 3 4 5
please rate
add to favorites
launch autoscroll
font size
0
reset
guitar tuner
Autoscroll
slow
fast
+/-
esc
set tempo
stop
Help us to improve Ultimate-Guitar.com Take our survey!
×
Contributor
Difficulty
MOxner 1,837
intermediate
[INTRO]
                                      A        A   D A  A        A   D A
G:--------|--------|--------|--------|--------|--------|--------|--------|
D:--------|--------|--------|--------|--------|--------|--------|--------|
A:--------|--------|--------|--------|--------|--------|--------|--------|
E:--------|--------|--------|--------|--------|--------|--------|--------|

[VERSE]
            A                      D
  Well, now me and Homer Jones and Big John Tally
        A                    F#7
  Had a big craps game goin' back in the alley
      B7                   E7                   A              E7
  And I kept rolling those sevens   And winnin' all them pots
  A                           D
  My luck was so good I could do no wrong
         A                      F#7
  I just kept on rollin' and controllin' them bones
  B7                               E7                         A           E7
  Finally they just threw up their arms and said "When you're hot, you're hot"

  A        D        A        F#7      B7       E7       A        E7
G:2-------|--------|2-------|--------|--------|------1-|2-------|------1-|
D:----2---|0-----0-|----2---|4--4----|----4---|22-24---|----2---|22-24---|
A:--------|----0---|--------|--4-3-2-|2-------|--------|--------|--------|
E:--------|--------|--------|--------|--------|--------|--------|--------|

  A        D        A        F#7      B7       E7       A        E7
G:2-------|--------|2-------|--------|--------|------1-|2---2---|--------|
D:----2---|0-------|----2---|4-------|----4---|22-24---|--------|22-24-2-|
A:--------|----0---|--------|----4---|2-------|--------|--------|--------|
E:--------|--------|--------|--------|--------|--------|--------|--------|

[CHORUS]
              A                                F#7    B             E7          A 
  And I said "Yeah"    When you're hot, you're hot      When you're not, you're not
      A                          F#7
  Put all the money in and let's roll 'em again
  B             E7          A      E7
    When you're hot, you're hot
  A             F#7          B       E7    A
    Na na na na na na          Na na na na na
  A             F#7          B             E7          A
    Na na na na na na          When you're hot, you're hot

  A        F#7      B   E7   A        A        F#7      B   E7   A
G:2-------|--------|--------|22------|2-------|--------|--------|2-2-----|
D:----2---|4-------|----2---|--2-4-2-|----2---|4-------|----2---|---24-2-|
A:--------|----4---|2-------|--------|--------|----4---|2-------|--------|
E:--------|--------|--------|--------|--------|--------|--------|--------|

  A        F#7      B   E7   A        A        F#7      B   E7   A
G:2-------|--------|--------|22------|2-------|--------|--------|2-----1-|
D:----2---|4-------|----2---|--2-4-2-|----2---|4-------|----2---|--2-----|
A:--------|----4---|2-------|--------|--------|----4---|2-------|--------|
E:--------|--------|--------|--------|--------|--------|--------|--------|

[VERSE]
                  A                  D
  Well, now every time I'd roll them dice I'd win
            A                     F#7
  And I was just gettin' ready to roll 'em again
               B7                    E7                                A       E7
  When I heard something behind me     I turned around and there was a big ol' cop
            A                    D
  He said, "Hello, boys," and he gave us a grin
         A                            F#7
  Said, "Looks like I'm gonna have to haul y'all in and
       B7                 E7                      A                    E7      
  Keep all that money for evidence," and I said, "Son, when you're hot,  you're hot"

  A        D        A        F#7      B7       E7       A        E7
G:2-------|--------|2-------|--------|--------|------1-|2-------|------1-|
D:----2---|0-----0-|----2-3-|4-------|----4---|22-24---|----2---|22-24---|
A:--------|----0---|--------|--443-2-|2-------|--------|--------|--------|
E:--------|--------|--------|--------|--------|--------|--------|--------|

  A        D        A        F#7      B7       E7       A        E7
G:2-------|--------|2-------|--------|--------|------1-|2---2---|------1-|
D:----2---|0-------|----2-3-|4-------|----4---|22-24---|--------|22-24---|
A:--------|----0---|--------|--443-2-|2-------|--------|--------|--------|
E:--------|--------|--------|--------|--------|--------|--------|--------|

[CHORUS]
               A                                F#7    B             E7          A 
  And he said "Yeah"    When you're hot, you're hot      When you're not, you're not
           A                     F#7
  You can 'splain it all down at City Hall
  B             E7          A      E7
    When you're hot, you're hot
  A             F#7          B       E7    A
    Na na na na na na          Na na na na na
  A             F#7          B             E7          A
    Na na na na na na          When you're hot, you're hot

  A        F#7      B   E7   A        A        F#7      B   E7   A
G:2-------|--------|--------|22------|2-------|--------|--------|2-----1-|
D:----2---|4-------|----2---|--2-4-2-|----2---|4-------|----2---|--2-----|
A:--------|----4---|2-------|--------|--------|----4---|2-------|--------|
E:--------|--------|--------|--------|--------|--------|--------|--------|

  A        F#7      B   E7   A        A        F#7      B   E7   A
G:2-------|--------|--------|22------|2-------|--------|--------|2-----1-|
D:----2---|4-------|----2---|--2-4-2-|----2---|4-------|----2---|--2-----|
A:--------|----4---|2-------|--------|--------|----4---|2-------|--------|
E:--------|--------|--------|--------|--------|--------|--------|--------|

[VERSE]
                A                     D
  Well, when he took us into court, I couldn't believe my eyes
      A                            F#7
  The judge was fishin' buddy that I recognized
           B7                    E7
  I said, "Judge, ol' buddy, ol' pal,
                    A                             E7
  I'll pay you that hundred I owe ya if ya get me outta this spot"
          A                        D                  A
  Well he gave my friends a little fine to pay and he turned around
      F#7                      B7                  E7            A    E7
  And grinned at me and said, "Ninety days, Jerry.   When you're hot,   you're hot."

  A        D        A        F#7      B7       E7       A        E7
G:2-------|--------|2-------|--------|--------|------1-|2-------|------1-|
D:----2---|0-------|----2---|4-------|----4---|22-24---|----2---|22-24---|
A:--------|----0---|--------|--443-2-|2-------|--------|--------|--------|
E:--------|--------|--------|--------|--------|--------|--------|--------|

  A        D        A        F#7      B7       E7       A        E7
G:2-------|--------|2-------|--------|--------|------1-|2-------|------1-|
D:----2---|0-----0-|----2-3-|4-------|----4---|22-24---|----2---|22-24---|
A:--------|----0---|--------|--443-2-|2-------|--------|--------|--------|
E:--------|--------|--------|--------|--------|--------|--------|--------|

[CHORUS]
                   A                               F#7 B             E7          A 
  I said "Thanks a lot!"   When you're hot, you're hot   When you're not, you're not
            A                               F#7        B            E7          A E7
  He let my friends go free and throwed the book at me  When you're hot, you're hot
  A             F#7          B       E7    A
    Na na na na na na          Na na na na na
  A             F#7          B             E7          A
    Na na na na na na          When you're hot, you're hot

  A        F#7      B   E7   A        A        F#7      B   E7   A
G:2-------|--------|--------|22------|2-------|--------|--------|2-----1-|
D:----2---|4-------|----2---|--2-4-2-|----2---|4-------|----2---|--2-----|
A:--------|----4---|2-------|--------|--------|----4---|2-------|--------|
E:--------|--------|--------|--------|--------|--------|--------|--------|

  A        F#7      B   E7   A        A        F#7      B   E7   A
G:2-------|--------|--------|22------|2-------|--------|--------|2-----1-|
D:----2---|4-------|----2---|--2-4-2-|----2---|4-------|----2---|--2-----|
A:--------|----4---|2-------|--------|--------|----4---|2-------|--------|
E:--------|--------|--------|--------|--------|--------|--------|--------|

[CODA]
  A        F#7      B   E7   A        A        F#7      B   E7   A
G:2-------|--------|--------|2-22----|2-------|--------|--------|2-----1-|
D:----2---|4-------|----2---|----4-2-|----2---|4-------|----2---|--2-----|
A:--------|----4---|2-------|--------|--------|----4---|2-------|--------|
E:--------|--------|--------|--------|--------|--------|--------|--------|

  A        F#7      B   E7   A        A        F#7      B   E7   A
G:2-------|--------|--------|2-22----|2-------|--------|--------|2-----1-|
D:----2---|4-------|----2---|----4-2-|----2---|4-------|----2---|--2-----|
A:--------|----4---|2-------|--------|--------|----4---|2-------|--------|
E:--------|--------|--------|--------|--------|--------|--------|--------|



Tabbed by Michael Oxner
moxner@nbnet.nb.ca
March 18, 2013
comments
We did not receive enough feedback on this tab! Please rate:
print report bad tab
1 2 3 4 5
I want to post or [tab]
guest
You may want to rate the tab now too:
select rating
Please do not post tabs as comments. Select "correction" instead!