Oops, an error
Loading. Please wait.

Amores Como El Nuestro Tab

74 views 1 this week
no commentswrite comment
1 2 3 4 5
3 more votes to show rating
add to favorites
launch autoscroll
font size
0
reset
how to read this tab
guitar tuner
Autoscroll
slow
fast
+/-
esc
set tempo
stop
Help us to improve Ultimate-Guitar.com Take our survey!
×
QUe tal...
bueno la otra trasncripcion de verdad que no se entiende...me parece
que la tablatura esta mal hecha....
no se porque complicarse con una tab tan sencilla:


Intro.

e-10-9-7----------7-------
B--------8---8-10---8-----
G-------------------------
D-------------------------
A-------------------------
E-------------------------

e-9-7---------------------
B-----10-7---7-8-10-7-----
G-------------------------
D-------------------------
A-------------------------
E-------------------------


e-7-------9-7----7--------
B---10-8------10----------
G-------------------------
D-------------------------
A-------------------------
E-------------------------


Ese es todo el intro de la canción....

saludos

Andres Alulema Moncayo
Suggest correction
Give kudos to tab author, rate the tab!
1 2 3 4 5
comments
print report bad tab
guest
You may want to rate the tab now too:
select rating
Wanna post a correction for this tab? Suggest correction