Oops, an error
Loading. Please wait.
74 views 1 this week
no commentswrite comment
1 2 3 4 5
2 more votes to show rating
add to favorites
launch autoscroll
font size
0
reset
how to read this tab
guitar tuner
×
Best way to learn
"Ese"
Autoscroll
slow
fast
+/-
esc
set tempo
stop
Intro: F - C - Dm - Am - Bb - C
e|------------------------------------------------------5-8-8/10-10-10/5--
B|-10>---6.-6-8--10-8-10-8-10-8-10-8-10>-----------5-6-8------------------
G|-----5---------------------------------5.-----5-7-----------------------
D|-------------------------------------------5-7--------------------------
A|------------------------------------------------------------------------
E|------------------------------------------------------------------------

e|-5-6-6/8-6-5/6-5-------------------------|
B|-----------------6---6.--5-6-6/8.--6/5-6-|
G|-------------------7---------------------|
D|-----------------------------------------|
A|-----------------------------------------|
E|-----------------------------------------|


F                              Dm
Ese, el que dices que tu amor no se merece
                           Bb
el que intentas ocultarlo y ya no puedes
                              C
el que piensas que te engaña y que te miente
                        Am
el que buscas en tu noches de locura
                          Dm
quien te llena de caricias, de ternura
                             Gm
quien te lleva con un beso hasta la Luna
        A            Bb        C
y vuelas alto en sus brazos, tan alto.

Bb
Yo sé que nadie como él te enamoró,
Am
aunque otros te hayan dado más amor 
   Bb                             Cm
y sé que si pudieras tratarías de olvidarlo
      Bb
lo que ha hecho con tu pobre corazón
      Am
que llega y se va como un ladrón
      Gm            G                 Bb  C
que a veces te enloquece hasta el delirio.


*CORO*
     F                   C
Pero algo debe haber en su interior
   Dm                       Am
será por eso que te conquistó
Bb                  F
será algo bueno, al fin y al cabo
Gm          C
sigues enamorada de...
F                        C
ese que te enrolla y que te envuelve
  Dm               Am
y hace de tu vida lo que quiere
      Bb            F      Gm      C      F
y aunque no lo comprendas, siempre vuelves con él.


Solo: ... C - Dm - Am - Bb - C
e|-----------------------------------5-8-8/10-10-8------------
B|------------------------------5-6-8---------------10/8-10>--
G|-----5-7-7/9.--10/9-7.-----5-7------------------------------
D|-7-8--------------------7-8---------------------------------
A|------------------------------------------------------------
E|------------------------------------------------------------

e|-----------------------5-6-5-------------|
B|-8-6-8-6-5-------------------8-6-5-6/8-6-|
G|-----------7.------5-7-------------------|
D|---------------7-8-----------------------|
A|-----------------------------------------|
E|-----------------------------------------|


F                              Dm
Ese, el que dices que tu amor no se merece
                           Bb
el que intentas ocultarlo y ya no puedes
                              C
el que piensas que te engaña y que te miente
                        Am
el que buscas en tu noches de locura
                          Dm
quien te llena de caricias, de ternura
                             Gm
quien te lleva con un beso hasta la Luna
        A            Bb        C
y vuelas alto en sus brazos, tan alto.


*CORO*


F - C - Dm - Am - Bb - F - Gm - C


F                        C
Ese que te enrolla y que te envuelve
  Dm               Am
y hace de tu vida lo que quiere
      Bb            F      Gm            Am - Dm - Bb - C
y aunque no lo comprendas, siempre vuelves con él
       F
ese soy yo...


                 ------
              º-|¤    ¤|-º 
              º-| LuïS |-º
              º-|¤    ¤|-º
                 \    /
                |  |
      ·===========================·
      | luis_6cuerdas@ |
      ·===========================·


*Si hubiese algún error o alguna duda, escribe al mail o avisa por MSN*
Suggest correction
Give kudos to tab author, rate the tab!
1 2 3 4 5
comments
print report bad tab
guest
You may want to rate the tab now too:
select rating
Wanna post a correction for this tab? Suggest correction