Oops, an error
Loading. Please wait.

Muero Tab

28 views 1 this week
no commentswrite comment
1 2 3 4 5
3 more votes to show rating
add to favorites
×
Save as Personal and add changes to this tab that will be seen only by you. Learn more ›
×
You can save this tab as Personal to edit and correct it or add notes. All changes will be seen only by you. Learn more »
save as personal
new!
launch autoscroll
font size
0
reset
how to read this tab
guitar tuner
Autoscroll
slow
fast
+/-
esc
set tempo
stop
Con capo en el 1er. Traste

Intro: C - G - D (x4)
e|------------------------------6------------|
B|-9..-9.--9-6/8-6--------8/9..---6/8-6------|
G|-----------------8..------------------8..--|
D|-------------------------------------------|
A|-------------------------------------------|
E|-------------------------------------------|

D             A            Bm
Tengo que pretender que no me duele que ya no estés aquí
         G                   B                  Em        A
que no me duele que poco a poco yo me esté muriendo de amor, por ti
D             A (Riff1)      Bm                  (Riff1)
tengo que pretender que no te lloro cuando me quedo solo
         G                   B                     Em         A
que no me duele ni sufro cuando alguien me pregunta por qué te perdí.
G                   D                G               A
pobre este amor que yo traigo en el alma, que no me deja vivir.

Riff 1
e|-6/8-6.-|
B|--------|
G|--------|

Coro
D         A                 Bm
Muero, la gente no sabe que muero
      F#m               G              D       Em           A
yo a veces no sé lo que quiero, si olvidar o correr junto a ti
            D        A                   Bm
vuelve que me muero, hoy sé que he jugado con fuego
    F#m                      G            D             Em         A
y a pesar de todo yo espero que otra vez volverás junto a mi
  Bm                        F#m
nuestro amor perdido; no puedo creerlo que sea verdad
 G                  E                A
nada en el mundo me importa porque tú no estás.

Solo: D - A - Bm - F#m - G - D - Em - A 
                                          *************
e|------------6..---9/10.-10-10/11/10.----10-10/11..----13-13-13-13.--
B|-------6-8-9-------------------------13-----------------------------
G|--5-7-8-------------------------------------------------------------
D|-8------------------------------------------------------------------
A|--------------------------------------------------------------------
E|--------------------------------------------------------------------

  ***********
e|-----------------6-6--------------------------8-11/13-13.-15*16-18..--|
B|-6.-6/8--------------9-8-8/9/8.---------8-9-11------------------------|
G|--------8.---7/8-----------------10-8-10------------------------------|
D|----------------------------------------------------------------------|
A|----------------------------------------------------------------------|
E|----------------------------------------------------------------------|

D             A            Bm
Tengo que pretender que no te lloro cuando me quedo solo
         G                  B                     Em         A
que no me duele ni sufro cuando alguien me pregunta por qué te perdí.
G                   D                G                A
pobre este amor que yo traigo en el alma, que no me deja vivir.

D         A                  Bm
Muero, la gente no sabe que muero
      F#m              G              D      Em          A
yo a veces no sé lo que quiero, si olvidar o correr junto a ti
            D        A                   Bm
vuelve que me muero, hoy sé que he jugado con fuego
    F#m                     G            D              Em   B   E     B - C#m
y a pesar de todo yo espero que otra vez volveraaaaas... muero...   (Riff 2)

Riff 2
e|-15/17-15..--13-12-13.--|
B|------------------------|
G|------------------------|

G#m                      A              E       F#m           B
Yo a veces no sé lo que quiero, si olvidar o correr junto a ti
              E        B                   C#m
vuelve que me muero, hoy sé que he jugado con fuego
    G#m                    A            E            F#m      B      
y a pesar de todo yo espero que otra vez volverás...


Notas:

-En el ?Solo?, hay una parte que está marcado con asteriscos; eso significa que 
no  estoy muy seguro que sea así. :)

-Los punteos están enumerados sin contar el Capo.


                 ------
              º-|¤    ¤|-º 
              º-| LuïS |-º
              º-|¤    ¤|-º
                 \    /
                |  |
      ·===========================·
      | luis_6cuerdas@ |
      ·===========================·
Suggest correction
Give kudos to tab author, rate the tab!
1 2 3 4 5
comments
print report bad tab
guest
Wanna post a correction for this tab? Suggest correction