Oops, an error
Loading. Please wait.

Quiero Tab

version 1
version 1

Whole song

14 views 3 this week
no commentswrite comment
1 2 3 4 5
3 more votes to show rating
add to favorites
launch autoscroll
font size
0
reset
how to read this tab
guitar tuner
Autoscroll
slow
fast
+/-
esc
set tempo
stop
Help us to improve Ultimate-Guitar.com Take our survey!
×
********************************************************
a todos los amantes de la buena musica esta cancion esta 
muy bonita y facil de tocar pero se olle muy bien creo 
que no tiene errores solo chequeen el tiempo en el solo
escuchandola cancion cualquier error me avisan 
pa lante (IMPROPERIOS!!!!!!)

intro
E:---------6--8--12-13-15--------12h13p12-12---------
B:---6-5-6---------------13-13-13------------15-15-13
G:-5-------------------------------------------------
D: --------------------------------------------------

E:--------------------
B:--------------------
G:-15-14-12-14-12-----
D:----------------15--

F                   Am
Si mi mundo se convierte en pesadillas 

E:-12---------------
B:---15-13----13h15-
G:---------14-------

Bb                     C
De pronto llegas tu a iluminar mi vida
E:------------9-----
B:-------8-10---8h10
G-7-9-10------------

F                Am  
Eres la luz que alumbra mi cielo
Bb           C
Eres el amor que alivia mis tormentos


Bb    C     Gm                     Bb                                           
Y tus besos son como la aurora del amanecer
Am          C          Bb      
Suave y dulce como la miel


F        C                                 Am 
Quiero volver a enredarme en el tierno calor de tu ser
Dm                                    Gm        
Quiero gritarle a los cuarto vientos que me enamore
Gm                                           C
Quiero alimentar mi alma con las ansias de tu piel
F      C                                 Am  
Quiero saborear tu cuerpo como la fruta del placer
Dm                                       Gm
Quiero respirar el aire que transita por tu ser
Gm                                     C    
Quiero dibujar mis sueños con el suave pincel de tu 
           Dm C Bb Am F 
         D:-0-----------
 querer  A:---3-1--0----
         E:-----------1-


F                      Am
Eres la inspiración en tiempo de desolación
Bb                  C 
Y es tu mirada que atraviesa mi verdad
F                    Am
Que seria de mi vida sin tu amor
Bb                          C  
A tu lado quiero estar por siempre corazón


Bb          C                                    
Y tus besos son como la aurora del amanecer
Am                    Bb       
Suave y dulce como la miel   


F        C                                   Am       
Quiero volver a enredarme en el tierno calor de tu ser
Dm                                               Gm
Quiero gritarle a los cuarto vientos que me enamore
Gm                                            C
Quiero alimentar mi alma con las ansias de tu piel
F      C                                 Am  
Quiero saborear tu cuerpo como la fruta del placer
                                       Bb
Quiero respirar el aire que transita por tu ser
Bb                                     C    
Quiero dibujar mis sueños con el suave pincel de tu 
F     
querer


Bdim                    Edim
Como la luna jamás seria tan bella
Dm
Si las estrellas no alumbraran su hermosura
Bdim               Edim
Así seria mi vida sin su amor
Dm                 Bb        C 
Triste y a oscuras desierta en las penumbras

solo
E:---------13-13-12-12--12----------------------------
B:----13-13-----------15--15-13--13--13---------------
G:-14--------------------------14--14--14-12-14-------
D:----------------------------------------------------

E:----------------------------------10-10-8-8
B:----------------10-11-10-------------------
G:-9-10-9-7------7--------10-10-7-10---------
D:---------10-7------------------------------

E:--------------------
B:-11-11-10-11-10----8
G:---------------10-7-
D:--------------------
F      C                                 Am  
Quiero saborear tu cuerpo como la fruta del placer
Dm                                       Gm
Quiero respirar el aire que transita por tu ser
Gm                                     C    
Quiero dibujar mis sueños con el suave pincel de tu 
F     
querer

outro
E:---------------------------
B:-----------------13----15--
G:---------12---14-----------
D:-12-14-15------------------


       E B G D A E  
Bdis   0 2 3 2 0 0
Edis   3 2 3 2 0 0

******************************************************
esta cancion se la dedico a jenny patricia que es lo   
mas bello, te quiero mucho, todo lo que dice es para mi
Suggest correction
Give kudos to tab author, rate the tab!
1 2 3 4 5
comments
print report bad tab
guest
You may want to rate the tab now too:
select rating
Wanna post a correction for this tab? Suggest correction