Oops, an error
Loading. Please wait.

Alien Walker Tab

version 1
version 1

Intro

Whole song

6,781 views 9 this week
2 commentsread comments
1 2 3 4 5
please rate
add to favorites
launch autoscroll
font size
0
reset
how to read this tab
guitar tuner
Autoscroll
slow
fast
+/-
esc
set tempo
stop
Help us to improve Ultimate-Guitar.com Take our survey!
×
Author
|--------------------------------------------|
|--------------------------------------------|
|--------------------------------------------|
|-----------------9----------t24-------------|
|-7-----t22--------7-----t22-----------------|
|-0------------------------------------------|

|---------------------------------------------------------------------------|
|---------------------------------------------------------------------------|
|-------------------------------------------------------9-9-----------------|
|--2-2-------------------------2-2----------------------7-7-----------------|
|--2-2--7-7--5-5--4-4--2/3\2---2-2--7-7--5-5--4--4-5------------------------|
|--0-0--7-7--5-5--4-4--2/3\2---0-0--7-7--5-5--4--4-5------------------------|

-------------------------------------------------------------10-12----------|
--------------------------------------------------------8-10----------------|
-----------------------------------------------------9----------------------|
--2-2------------------------2-2------------7-------------------------------|
--2-2--7-7--5-5--4-4--2/3\2--2-2--7-7--5-5----------------------------------|
--0-0--7-7--5-5--4-4--2/3\2--0-0--7-7--5-5----------------------------------|

----------------------------------------------------------------------------|
----------------------------------------------------------------------------|
-------------------------------------------------------9-9------------------|
--2-2------------------------2-2-----------------------7-7------------------|
--2-2--7-7--5-5--4-4--2/3\2--2-2--7-7--5-5--4--4-5--------------------------|
--0-0--7-7--5-5--4-4--2/3\2--0-0--7-7--5-5--4--4-5--------------------------|

----------------------------------------------------------------------------|
----------------------------------------------------------------------------|
----------------------------------------------------------------------------|
--2-2-----------------------------------------------------------------------|
--2-2--7-7--5-5--4-4--2/3\2---------------------------21\-------------------|
--0-0--7-7--5-5--4-4--2/3\2---------------------------21\-------------------|

----------------------------------------------------------------------------|
----------------------------------------------------------------------------|
----------19-18~~-16-15-14---16^-15-14-13-----------------------------------|
--14-17-------------------------------------------14^-14~~~-----------------|
----------------------------------------------------------------------------|
----------------------------------------------------------------------------|
Suggest correction
Give kudos to tab author, rate the tab!
1 2 3 4 5
comments
print report bad tab
2 comments total.
0 reply
thezac 10 wrote on April 23 2007, 12:43 pm

instead of playin it like this:

|---------------------------------------------------------------------------|
|---------------------------------------------------------------------------|
|-------------------------------------------------------9-9-----------------|
|--2-2-------------------------2-2----------------------7-7-----------------|
|--2-2--7-7--5-5--4-4--2/3\2---2-2--7-7--5-5--4--4-5------------------------|
|--0-0--7-7--5-5--4-4--2/3\2---0-0--7-7--5-5--4--4-5------------------------|

it should actually be octaves like this:

----------------------------
----------------------------
------9-9--7-7--6-6--4s5s2--
------x-x--x-x--x-x--x------
-2-2--7-7--5-5--4-4--2s3s2--
-0-0------------------------

and so on

0 reply
thezac 10 wrote on April 23 2007, 12:44 pm

**
----------------------------
----------------------------
------9-9--7-7--6-6--4s5s4--
------x-x--x-x--x-x--x------
-2-2--7-7--5-5--4-4--2s3s2--
-0-0------------------------

guest
You may want to rate the tab now too:
select rating
Wanna post a correction for this tab? Suggest correction