Oops, an error
Loading. Please wait.

Canon Rock Bass Tab

version 1
version 1
108,772 views 108 this week
10 commentsread comments
1 2 3 4 5
excellent!
x 7
add to favorites
launch autoscroll
font size
0
reset
guitar tuner
Autoscroll
slow
fast
+/-
esc
set tempo
stop
Help us to improve Ultimate-Guitar.com Take our survey!
×
Canon Rock                                    
                                                                        
JerryC
Bass


G|-------|-------|-------|-------|-------|-------|-------|-------|-------|
D|-------|-------|-------|-------|-------|-------|-------|-------|-------|
A|-------|-------|-------|-------|-------|-------|-------|-------|-------|
E|-------|-------|-------|-------|-------|-------|-------|-------|-------|


                                                            Q    Q    Q    
  Q     
G|-------|-------|-------|-------|-------|-------|-------|----------------------|
D|-------|-------|-------|-------|-------|-------|-------|----------------------|
A|-------|-------|-------|-------|-------|-------|-------|--5-------------------|
E|-------|-------|-------|-------|-------|-------|-------|----------------------|


    Q    Q    Q    Q       Q    Q    Q    Q       Q    Q    Q    Q     
G|----------------------|----------------------|----------------------|
D|----------------------|----------------------|----------------------|
A|--0-------------------|--2---------4----5----|----------------------|
E|----------------------|----------------------|--2---------0----2----|


    Q    Q    Q    Q       Q    Q    Q    Q       Q    Q    Q    Q     
G|----------------------|----------------------|----------------------|
D|----------------------|----------------------|----------------------|
A|----------------------|--5-------------------|----------------------|
E|--3-------------------|----------------------|--3-------------------|


    H        E  E  E  E     H        E  Q.        H        E  Q.      
G|-----------------------|---------------------|---------------------|
D|-----------------------|---------------------|---------------------|
A|--0--------2--4--5--0--|--5--------5--5------|---------------------|
E|-----------------------|---------------------|--5--------5--5------|


    H        E  E  Q       H        E  Q.        H        E  Q     E   
G|----------------------|---------------------|-----------------------|
D|----------------------|---------------------|-----------------------|
A|--2--------2--2--2----|---------------------|--------------2S----5--|
E|----------------------|--2--------2--2------|--3--------------------|


    H        E  E  E  E     H        E  E  E  E     H        E  Q    E   
G|-----------------------|-----------------------|----------------------|
D|-----------5--4--2-----|-----------------------|----------------------|
A|--5-----------------5--|-----------2--4--5--4--|----------------------|
E|-----------------------|--3--------------------|--5--------5--5-------|


    H        E  Q.        H        E  Q.        H        E  Q.      
G|---------------------|---------------------|---------------------|
D|---------------------|---------------------|---------------------|
A|--5--------5--5------|---------------------|--2--------2--2------|
E|---------------------|--5--------5--5------|---------------------|


    H        Q    Q       H        E  Q.        H        E  Q.      
G|---------------------|---------------------|---------------------|
D|---------------------|---------------------|---------------------|
A|---------------------|---------------------|--5--------5--5------|
E|--2--------0----2----|--3--------3--3------|---------------------|


    H        E  Q.        H        E  Q.        H        E  Q.      
G|---------------------|---------------------|---------------------|
D|---------------------|---------------------|---------------------|
A|---------------------|---------------------|--5--------5--5------|
E|--3--------3--3------|--5--------5--5------|---------------------|


    H        E  Q.        H        E  Q.        H        Q    Q     
G|---------------------|---------------------|---------------------|
D|---------------------|---------------------|---------------------|
A|---------------------|--2--------2--2------|---------------------|
E|--5--------5--5------|---------------------|--2--------0----2----|


    H        E  Q.        H        E  Q.        H        E  Q.      
G|---------------------|---------------------|---------------------|
D|---------------------|---------------------|---------------------|
A|---------------------|--5--------5--5------|---------------------|
E|--3--------3--3------|---------------------|--3--------3--3------|


    H        E  Q.        H        E  Q.        H        E  Q.      
G|---------------------|---------------------|---------------------|
D|---------------------|---------------------|---------------------|
A|---------------------|--5--------5--5------|---------------------|
E|--5--------5--5------|---------------------|--5--------5--5------|


    H        E  Q.        H        Q    Q       H        E  Q.      
G|---------------------|---------------------|---------------------|
D|---------------------|---------------------|---------------------|
A|--2--------2--2------|---------------------|---------------------|
E|---------------------|--2--------0----2----|--3--------3--3------|


    H        E  Q.        H        E  Q.        H        E  Q.      
G|---------------------|---------------------|---------------------|
D|---------------------|---------------------|---------------------|
A|--5--------5--5------|---------------------|---------------------|
E|---------------------|--3--------3--3------|--5--------5--5------|


    H        E  Q.        H        E  Q.        H        E  Q.      
G|---------------------|---------------------|---------------------|
D|---------------------|---------------------|---------------------|
A|--5--------5--5------|---------------------|--2--------2--2------|
E|---------------------|--5--------5--5------|---------------------|


    H        Q    Q       H        E  Q.        H        E  Q.      
G|---------------------|---------------------|---------------------|
D|---------------------|---------------------|---------------------|
A|---------------------|---------------------|--5--------5--5------|
E|--2--------0----2----|--3--------3--3------|---------------------|


    H        E  Q.        H        E  Q.                      
G|---------------------|---------------------|-------|-------|
D|---------------------|---------------------|-------|-------|
A|---------------------|---------------------|-------|-------|
E|--3--------3--3------|--5--------5--5------|-------|-------|


    E  E  E  E  E  E  E  E     E  E  E  E  E  E  E  E   
G|--------------------------|--------------------------|
D|--------------------------|--------------------------|
A|--5--5--5--5--5--5--5--5--|--------------------------|
E|--------------------------|--5--5--5--5--5--5--5--5--|


    E  E  E  E  E  E  E  E     E  E  E  E  E  E  E  E   
G|--------------------------|--------------------------|
D|--------------------------|--------------------------|
A|--2--2--2--2--2--2--2--2--|--------------------------|
E|--------------------------|--2--2--2--2--2--2--2--2--|


    E  E  E  E  E  E  E  E     E  E  E  E  E  E  E  E   
G|--------------------------|--------------------------|
D|--------------------------|--------------------------|
A|--------------------------|--5--5--5--5--5--5--5--5--|
E|--3--3--3--3--3--3--3--3--|--------------------------|


    E  E  E  E  E  E  E  E     E  E  E  E  Q    S S S S    H        E  E  
  Q     
G|--------------------------|---------------------------|----------------------|
D|--------------------------|---------------------------|----------------------|
A|--------------------------|-------------------5-4-2-0-|--5--------5--5--5----|
E|--3--3--3--3--3--3--3--3--|--5--5--5--5--5------------|----------------------|


    E  E  E  E  Q    S S S S    H        E  E  Q       E  E  E  E  Q    S 
  S S S  
G|---------------------------|----------------------|---------------------------|
D|---------------------------|----------------------|---------------------------|
A|---------------------------|--2--------2--2--2----|---------------------------|
E|--5--5--5--5--5----5-5-5-5-|----------------------|--2--2--2--2--2----2-2-2-2-|


    H        E  E  Q       E  E  E  E  Q    S S S S    H        E  E  Q     
G|----------------------|---------------------------|----------------------|
D|----------------------|---------------------------|----------------------|
A|----------------------|--5--5--5--5--5----5-5-5-5-|----------------------|
E|--3--------3--3--3----|---------------------------|--3--------3--3--3----|


    E  E  E  E  H           Q    E  E  E  E  E  E     Q    E  E  E  E  E  
  E   
G|-----------------------|-------------------------|-------------------------|
D|-----------------------|-------------------------|-------------------------|
A|-----------------------|--5----5--5--5--5--5--5--|-------------------------|
E|--5--5--5--5--5--------|-------------------------|--5----5--5--5--5--5--5--|


    Q    E  E  E  E  E  E     Q    E  E  Q    Q       Q    E  E  E  E  E  
  E   
G|-------------------------|-----------------------|-------------------------|
D|-------------------------|-----------------------|-------------------------|
A|--2----2--2--2--2--2--2--|-----------------------|-------------------------|
E|-------------------------|--2----2--2--0----2----|--3----3--3--3--3--3--3--|


    Q    E  E  E  E  E  E     Q    E  E  E  E  E  E   
G|-------------------------|-------------------------|
D|-------------------------|-------------------------|
A|--5----5--5--5--5--5--5--|-------------------------|
E|-------------------------|--3----3--3--3--3--3--3--|


  |---3--|  |---3--|  |---3--|   |---3---|                             
  E  E   E  E  E   E  E  E   E   E   E   E     Q    E  E  E  E  E  E   
--------------------------------------------|-------------------------|
------------7--9--11--7--9--11--11--12--14--|-------------------------|
--7--9--10----------------------------------|--5----5--5--5--5--5--5--|
--------------------------------------------|-------------------------|


    Q    E  E  E  E  E  E     Q    E  E  E  E  E  E     Q    E  E  Q    Q     
G|-------------------------|-------------------------|-----------------------|
D|-------------------------|-------------------------|-----------------------|
A|-------------------------|--2----2--2--2--2--2--2--|-----------------------|
E|--5----5--5--5--5--5--5--|-------------------------|--2----2--2--0----2----|


    Q    E  E  E  E  E  E     Q    E  E  E  E  E  E   
G|-------------------------|-------------------------|
D|-------------------------|-------------------------|
A|-------------------------|--5----5--5--5--5--5--5--|
E|--3----3--3--3--3--3--3--|-------------------------|


     S  S  S  S S S S S  S  S  S  S  S  S  S  S  
G|----------------------------------------------|
D|--------------9-9-9-9-11-11-11-11-12-12-12-12-|
A|--10-10-10-10---------------------------------|
E|----------------------------------------------|


                                       |-----5-----|                            
   S  S  S  S  S  S  S  S  S  S  S  S  S  S  S  S  S    Q    E  E  E  E  
E  E   
-----------11-12-14-12-11----------------------------|-------------------------|
--11-12-14----------------14-12-11----------11-12-14-|-------------------------|
-----------------------------------14-12-14----------|--5----5--5--5--5--5--5--|
-----------------------------------------------------|-------------------------|


    Q    E  E  E  E  E  E     Q    E  E  E  E  E  E     Q    E  E  Q    Q     
G|-------------------------|-------------------------|-----------------------|
D|-------------------------|-------------------------|-----------------------|
A|-------------------------|--2----2--2--2--2--2--2--|-----------------------|
E|--5----5--5--5--5--5--5--|-------------------------|--2----2--2--0----2----|


    Q    E  E  E  E  E  E     Q    E  E  E  E  E  E     Q    E  E  E  E  
  E  E   
G|-------------------------|-------------------------|-------------------------|
D|-------------------------|-------------------------|-------------------------|
A|-------------------------|--5----5--5--5--5--5--5--|-------------------------|
E|--3----3--3--3--3--3--3--|-------------------------|--3----3--3--3--3--3--3--|


    Q    E  E  E  E  E  E     Q    E  E  E  E  E  E     Q    E  E  E  E  
  E  E   
G|-------------------------|-------------------------|-------------------------|
D|-------------------------|-------------------------|-------------------------|
A|-------------------------|--5----5--5--5--5--5--5--|-------------------------|
E|--5----5--5--5--5--5--5--|-------------------------|--5----5--5--5--5--5--5--|


    Q    E  E  E  E  E  E     Q    E  E  Q    Q       Q    E  E  E  E  E  
  E   
G|-------------------------|-----------------------|-------------------------|
D|-------------------------|-----------------------|-------------------------|
A|--2----2--2--2--2--2--2--|-----------------------|-------------------------|
E|-------------------------|--2----2--2--0----2----|--3----3--3--3--3--3--3--|


    Q    E  E  E  E  E  E     Q    E  E  E  E  E  E     Q    E  E  E  E  
  E  E   
G|-------------------------|-------------------------|-------------------------|
D|-------------------------|-------------------------|-------------------------|
A|--5----5--5--5--5--5--5--|-------------------------|-------------------------|
E|-------------------------|--3----3--3--3--3--3--3--|--5----5--5--5--5--5--5--|


    Q    E  E  E  E  E  E     Q    E  E  E  E  E  E     Q    E  E  E  E  
  E  E   
G|-------------------------|-------------------------|-------------------------|
D|-------------------------|-------------------------|-------------------------|
A|--5----5--5--5--5--5--5--|-------------------------|--2----2--2--2--2--2--2--|
E|-------------------------|--5----5--5--5--5--5--5--|-------------------------|


    Q    E  E  Q    Q       Q    E  E  E  E  E  E     Q    E  E  E  E  E  
  E   
G|-----------------------|-------------------------|-------------------------|
D|-----------------------|-------------------------|-------------------------|
A|-----------------------|-------------------------|--5----5--5--5--5--5--5--|
E|--2----2--2--0----2----|--3----3--3--3--3--3--3--|-------------------------|


    Q    E  E  E  E  E  E     Q    E  E  E  E  E  E     E  E  E  E  E  E  
  E  E   
G|-------------------------|-------------------------|--------------------------|
D|-------------------------|-------------------------|--------------------------|
A|-------------------------|-------------------------|--5--5--5--5--5--5--5--5--|
E|--3----3--3--3--3--3--3--|--5----5--5--5--5--5--5--|--------------------------|


    E  E  E  E  E  E  E  E     E  E  E  E  E  E  E  E   
G|--------------------------|--------------------------|
D|--------------------------|--------------------------|
A|--------------------------|--2--2--2--2--2--2--2--2--|
E|--5--5--5--5--5--5--5--5--|--------------------------|


    E  E  E  E  E  E  E  E     E  E  E  E  E  E  E  E   
G|--------------------------|--------------------------|
D|--------------------------|--------------------------|
A|--------------------------|--------------------------|
E|--2--2--2--2--2--2--2--2--|--3--3--3--3--3--3--3--3--|


    E  E  E  E  E  E  E  E     E  E  E  E  E  E  E  E   
G|--------------------------|--------------------------|
D|--------------------------|--------------------------|
A|--5--5--5--5--5--5--5--5--|--------------------------|
E|--------------------------|--3--3--3--3--3--3--3--3--|


    E  E  E  E  Q    S S S S    H        E  E  Q       E  E  E  E  Q    S 
  S S S  
G|---------------------------|----------------------|---------------------------|
D|---------------------------|----------------------|---------------------------|
A|-------------------5-4-2-0-|--5--------5--5--5----|---------------------------|
E|--5--5--5--5--5------------|----------------------|--5--5--5--5--5----5-5-5-5-|


    H        E  E  Q       E  E  E  E  Q    S S S S    H        E  E  Q     
G|----------------------|---------------------------|----------------------|
D|----------------------|---------------------------|----------------------|
A|--2--------2--2--2----|---------------------------|----------------------|
E|----------------------|--2--2--2--2--2----2-2-2-2-|--3--------3--3--3----|


    E  E  E  E  Q    S S S S    H        E  E  Q       E  E  E  E  H         
G|---------------------------|----------------------|-----------------------|
D|---------------------------|----------------------|-----------------------|
A|--5--5--5--5--5----5-5-5-5-|----------------------|-----------------------|
E|---------------------------|--3--------3--3--3----|--5--5--5--5--5--------|


            W                   W                   W                 
G|-------|-------------------|-------------------|-------------------|
D|-------|-------------------|-------------------|-------------------|
A|-------|-------------------|-------------------|-------------------|
E|-------|--5----------------|--5----------------|--2----------------|


    W                   W                   W                   W                 
G|-------------------|-------------------|-------------------|-------------------|
D|-------------------|-------------------|-------------------|-------------------|
A|-------------------|--5----------------|--5----------------|--5----------------|
E|--2----------------|-------------------|-------------------|-------------------|


    W                   E  E  E  E  E  E  E  E     E  E  E  E  E  E  E  E   
G|-------------------|--------------------------|--------------------------|
D|-------------------|--------------------------|--------------------------|
A|-------------------|--5--5--5--5--5--5--5--5--|--------------------------|
E|--5----------------|--------------------------|--5--5--5--5--5--5--5--5--|


    E  E  E  E  E  E  E  E     E  E  E  E  E  E  E  E   
G|--------------------------|--------------------------|
D|--------------------------|--------------------------|
A|--2--2--2--2--2--2--2--2--|--------------------------|
E|--------------------------|--2--2--2--2--2--2--2--2--|


    S S S S S S S S S S S S S S S S    S S S S S S S S S S S S S S S S  
G|----------------------------------|----------------------------------|
D|----------------------------------|----------------------------------|
A|----------------------------------|--5-5-5-5-5-5-5-5-5-5-5-5-5-5-5-5-|
E|--3-3-3-3-3-3-3-3-3-3-3-3-3-3-3-3-|----------------------------------|


    S S S S S S S S S S S S S S S S    S S S S S S S S S S S S S S S S  
G|----------------------------------|----------------------------------|
D|----------------------------------|----------------------------------|
A|----------------------------------|----------------------------------|
E|--3-3-3-3-3-3-3-3-3-3-3-3-3-3-3-3-|--5-5-5-5-5-5-5-5-5-5-5-5-5-5-5-5-|


    S S S S S S S S S S S S S S S S    S S S S S S S S S S S S S S S S  
G|----------------------------------|----------------------------------|
D|----------------------------------|----------------------------------|
A|--5-5-5-5-5-5-5-5-5-5-5-5-5-5-5-5-|----------------------------------|
E|----------------------------------|--5-5-5-5-5-5-5-5-5-5-5-5-5-5-5-5-|


    S S S S S S S S S S S S S S S S    S S S S S S S S S S S S S S S S  
G|----------------------------------|----------------------------------|
D|----------------------------------|----------------------------------|
A|--2-2-2-2-2-2-2-2-2-2-2-2-2-2-2-2-|----------------------------------|
E|----------------------------------|--2-2-2-2-2-2-2-2-2-2-2-2-2-2-2-2-|


    S S S S S S S S S S S S S S S S    S S S S S S S S S S S S S S S S  
G|----------------------------------|----------------------------------|
D|----------------------------------|----------------------------------|
A|----------------------------------|--5-5-5-5-5-5-5-5-5-5-5-5-5-5-5-5-|
E|--3-3-3-3-3-3-3-3-3-3-3-3-3-3-3-3-|----------------------------------|


    S S S S S S S S S S S S S S S S    S S S S S S S S S S S S S S S S  
G|----------------------------------|----------------------------------|
D|----------------------------------|----------------------------------|
A|----------------------------------|----------------------------------|
E|--3-3-3-3-3-3-3-3-3-3-3-3-3-3-3-3-|--5-5-5-5-5-5-5-5-5-5-5-5-5-5-5-5-|


    E  E  E  E  E  E  E  E     E  E  E  E  E  E  E  E   
G|--------------------------|--------------------------|
D|--------------------------|--------------------------|
A|--5--5--5--5--5--5--5--5--|--------------------------|
E|--------------------------|--5--5--5--5--5--5--5--5--|


    E  E  E  E  E  E  E  E     E  E  E  E  E  E  E  E   
G|--------------------------|--------------------------|
D|--------------------------|--------------------------|
A|--2--2--2--2--2--2--2--2--|--------------------------|
E|--------------------------|--2--2--2--2--2--2--2--2--|


    E  E  E  E  E  E  E  E     E  E  E  E  E  E  E  E   
G|--------------------------|--------------------------|
D|--------------------------|--------------------------|
A|--------------------------|--5--5--5--5--5--5--5--5--|
E|--3--3--3--3--3--3--3--3--|--------------------------|


    E  E  E  E  E  E  E  E     E  E  E  E  E  E  E  E   
G|--------------------------|--------------------------|
D|--------------------------|--------------------------|
A|--------------------------|--------------------------|
E|--3--3--3--3--3--3--3--3--|--5--5--5--5--5--5--5--5--|


    E  E  E  E  E  E  E  E     E  E  E  E  E  E  E  E   
G|--------------------------|--------------------------|
D|--------------------------|--------------------------|
A|--5--5--5--5--5--5--5--5--|--------------------------|
E|--------------------------|--5--5--5--5--5--5--5--5--|


    E  E  E  E  E  E  E  E     E  E  E  E  E  E  E  E   
G|--------------------------|--------------------------|
D|--------------------------|--------------------------|
A|--2--2--2--2--2--2--2--2--|--------------------------|
E|--------------------------|--2--2--2--2--2--2--2--2--|


    E  E  E  E  E  E  E  E     E  E  E  E  E  E  E  E   
G|--------------------------|--------------------------|
D|--------------------------|--------------------------|
A|--------------------------|--5--5--5--5--5--5--5--5--|
E|--3--3--3--3--3--3--3--3--|--------------------------|


    E  E  E  E  E  E  E  E     E  E  E  E  E  E  E  E           
G|--------------------------|--------------------------|-------|
D|--------------------------|--------------------------|-------|
A|--------------------------|--------------------------|-------|
E|--3--3--3--3--3--3--3--3--|--5--5--5--5--5--5--5--5--|-------|


    E  E  E  E  E  E  E  E     E  E  E  E  E  E  E  E   
G|--------------------------|--------------------------|
D|--------------------------|--------------------------|
A|--------------------------|--2--2--2--2--2--2--2--2--|
E|--5--5--5--5--5--5--5--5--|--------------------------|


    E  E  E  E  E  E  E  E     E  E  E  E  E  E  E  E   
G|--------------------------|--------------------------|
D|--------------------------|--------------------------|
A|--------------------------|--------------------------|
E|--2--2--2--2--2--2--2--2--|--3--3--3--3--3--3--3--3--|


    E  E  E  E  E  E  E  E     E  E  E  E  E  E  E  E   
G|--------------------------|--------------------------|
D|--------------------------|--------------------------|
A|--5--5--5--5--5--5--5--5--|--------------------------|
E|--------------------------|--3--3--3--3--3--3--3--3--|


    E  E  E  E  E  E  E  E     E  E  E  E  E  E  E  E   
G|--------------------------|--------------------------|
D|--------------------------|--------------------------|
A|--------------------------|--5--5--5--5--5--5--5--5--|
E|--5--5--5--5--5--5--5--5--|--------------------------|


    E  E  E  E  E  E  E  E     E  E  E  E  E  E  E  E   
G|--------------------------|--------------------------|
D|--------------------------|--------------------------|
A|--------------------------|--2--2--2--2--2--2--2--2--|
E|--5--5--5--5--5--5--5--5--|--------------------------|


    E  E  E  E  E  E  E  E     E  E  E  E  E  E  E  E   
G|--------------------------|--------------------------|
D|--------------------------|--------------------------|
A|--------------------------|--------------------------|
E|--2--2--2--2--2--2--2--2--|--3--3--3--3--3--3--3--3--|


    E  E  E  E  E  E  E  E     E  E  E  E  E  E  E  E   
G|--------------------------|--------------------------|
D|--------------------------|--------------------------|
A|--5--5--5--5--5--5--5--5--|--------------------------|
E|--------------------------|--3--3--3--3--3--3--3--3--|


    E  E  E  E  E  E  E  E     E  E  E  E  E  E  E  E   
G|--------------------------|--------------------------|
D|--------------------------|--------------------------|
A|--------------------------|--5--5--5--5--5--5--5--5--|
E|--5--5--5--5--5--5--5--5--|--------------------------|


    E  E  E  E  E  E  E  E     E  E  E  E  E  E  E  E   
G|--------------------------|--------------------------|
D|--------------------------|--------------------------|
A|--------------------------|--2--2--2--2--2--2--2--2--|
E|--5--5--5--5--5--5--5--5--|--------------------------|


    E  E  E  E  E  E  E  E     E  E  E  E  E  E  E  E   
G|--------------------------|--------------------------|
D|--------------------------|--------------------------|
A|--------------------------|--------------------------|
E|--2--2--2--2--2--2--2--2--|--3--3--3--3--3--3--3--3--|


    E  E  E  E  E  E  E  E     E  E  E  E  E  E  E  E   
G|--------------------------|--------------------------|
D|--------------------------|--------------------------|
A|--5--5--5--5--5--5--5--5--|--------------------------|
E|--------------------------|--3--3--3--3--3--3--3--3--|


    E  E  E  E  E  E  E  E     E  E  E  E  E  E  E  E   
G|--------------------------|--------------------------|
D|--------------------------|--------------------------|
A|--------------------------|--5--5--5--5--5--5--5--5--|
E|--5--5--5--5--5--5--5--5--|--------------------------|


    E  E  E  E  E  E  E  E     E  E  E  E  E  E  E  E   
G|--------------------------|--------------------------|
D|--------------------------|--------------------------|
A|--------------------------|--2--2--2--2--2--2--2--2--|
E|--5--5--5--5--5--5--5--5--|--------------------------|


    E  E  E  E  E  E  E  E     E  E  E  E  E  E  E  E   
G|--------------------------|--------------------------|
D|--------------------------|--------------------------|
A|--------------------------|--------------------------|
E|--2--2--2--2--2--2--2--2--|--3--3--3--3--3--3--3--3--|


    E  E  E  E  E  E  E  E     E  E  E  E  E  E  E  E   
G|--------------------------|--------------------------|
D|--------------------------|--------------------------|
A|--5--5--5--5--5--5--5--5--|--------------------------|
E|--------------------------|--3--3--3--3--3--3--3--3--|


    E  E  E  E  E  E  E  E     W                   W                 
G|--------------------------|-------------------|-------------------|
D|--------------------------|-------------------|-------------------|
A|--------------------------|--5----------------|-------------------|
E|--5--5--5--5--5--5--5--5--|-------------------|--2----------------|


    W                   W                   W                   W                 
G|-------------------|-------------------|-------------------|-------------------|
D|-------------------|-------------------|-------------------|-------------------|
A|-------------------|-------------------|--5----------------|--9----------------|
E|--3----------------|--5----------------|-------------------|-------------------|


    W                   W                   W                 
G|-------------------|-------------------|-------------------|
D|-------------------|-------------------|-------------------|
A|-------------------|-------------------|--5----------------|
E|--3----------------|--5----------------|-------------------|


    W                  
G|-------------------||
D|-------------------||
A|--L----------------||
E|-------------------||




Duration Legend
---------------
W - whole
H - half
Q - quarter
E - 8th
S - 16th
T - 32nd
X - 64th
. - note dotted
|-n-|  - n-tuplets


Tablature Legend
----------------
L - tied note
x - dead note
g - grace note
(n) - ghost note
> - accentuded note
NH - natural harmonic
AH - artificial harmonic
TH - tapped harmonic
SH - semi harmonic
PH - pitch harmonic
h - hammer on
p - pull off
b - bend
br - bendRelease
pb - preBend
pbr - preBendRelease
brb - bendReleaseBend
\n/ - tremolo bar dip
\n - tremolo bar dive
-/n - tremolo bar Release up
/n\ - tremolo bar inverted dip
/n - tremolo bar return
-\n - tremolo bar Release down
S - shift slide
s - legato slide
/ -  slide into from below or out of upwards
\ -  slide into from above or out of downwards
~ - vibrato
W - wide vibrato
tr - trill
TP - tremolo picking
T - tapping
S - slap
P - pop
< - fade in
^ - brush up
v - brush down

Plain Text Attachment [ Scan and Save to Computer | Save to Yahoo! Briefcase ]
Suggest correction
comments
print report bad tab
10 comments total. Showing first comments.
0 reply
cono the guitar 82 wrote on February 28 2007, 08:52 pm

That is ausome I've been wanting to play this with mky band and now I can

0 reply
un_stairway 72 wrote on June 22 2007, 03:23 am

heyy men you think can put timings on it when to go in?? coz its really hard to know when the bass comes in.. thankss:)

0 reply
bcwfootball54 1,122 wrote on July 13 2007, 11:43 pm

nice

guest
You may want to rate the tab now too:
select rating
Please do not post tabs as comments. Select "correction" instead!