Oops, an error
Loading. Please wait.

Canon Rock Tab

version 1
version 1
3,937,940 views 3,012 this week
248 commentsread comments
1 2 3 4 5
excellent!
x 723
add to favorites
launch autoscroll
font size
0
reset
how to read this tab
guitar tuner
Autoscroll
slow
fast
+/-
esc
set tempo
stop
Help us to improve Ultimate-Guitar.com Take our survey!
×
Author
  
e|------------------------|------------------------|
B|--19~--------17~--------|--15~--------14~--------|
G|------------------------|------------------------|
D|------------------------|------------------------|
A|------------------------|------------------------|
E|------------------------|------------------------|

e|------------------------|----------------------------|
B|--12~--------10~--------|--12~--------14~----15--17--|
G|------------------------|----------------------------|
D|------------------------|----------------------------|
A|------------------------|----------------------------|
E|------------------------|----------------------------|

e|--14~------------15--14h-15p-14-----|----------------------14--17--19--|
B|-------------17-----------------17--|--15~------17p-15-14--------------|
G|------------------------------------|----------------------------------|
D|------------------------------------|----------------------------------|
A|------------------------------------|----------------------------------|
E|------------------------------------|----------------------------------|

e|--15--14-15-14-----15--14-------------------|
B|---------------17----------17--15-17-15-----|
G|----------------------------------------14--|
D|--------------------------------------------|
A|--------------------------------------------|
E|--------------------------------------------|

e|--------------------------------------------------------------------------|
B|--------------15--14h-15-14h-15-14h-15-14h-15-14h-15-14h-15-14h-15-14h-15-|
G|--16--14--12--------------------------------------------------------------|
D|--------------------------------------------------------------------------|
A|--------------------------------------------------------------------------|
E|--------------------------------------------------------------------------|

e|-------------------------|-------------------------|-------------------------|
B|-------------8--7--------|-------------5--7--------|-------------2-----3-----|
G|--7----------------------|-------------------------|--4----------------------|
D|--7----------------------|--7----------------------|--4----------------------|
A|--5----5--5--------5--5--|--7----------------0--0--|--2----2--2-----2-----2--|
E|-------------------------|--5----5--5--------------|-------------------------|

e|-------------------------|-------------------------|-------------------------|
B|-------------------------|-------------------------|-------------8--7--5-----|
G|-------------------------|----------------4/----6--|--7-------------------7--|
D|--4----------2-----4-----|--5-------------5/----7--|--7----------------------|
A|--4----------2-----4-----|--5----------------------|--5----5--5--------------|
E|--2----2--2--0--0--2--2--|--3----3--3--3-----------|-------------------------|

e|---------------------------|---------------------------|
B|---------------------------|---------------------------|
G|-------------4/--6h--7--6--|-------------6/--7h--9--7--|
D|--5------------------------|--7------------------------|
A|--5------------------------|--7------------------------|
E|--3----3--3----------------|--5----5--5----------------|

e|-------------------------|-------------------------|-------------------------|
B|-------------8--7--------|-------------5--7--------|-------------2-----3-----|
G|--7----------------------|-------------------------|--4----------------------|
D|--7----------------------|--7----------------------|--4----------------------|
A|--5----5--5--------5--5--|--7----------------0--0--|--2----2--2-----2-----2--|
E|-------------------------|--5----5--5--------------|-------------------------|
  
e|-------------------------|-------------------------|-------------------------|
B|-------------------------|-------------------------|-------------8--7--5-----|
G|-------------------------|----------------4/----6--|--7-------------------7--|
D|--4----------2-----4-----|--5-------------5/----7--|--7----------------------|
A|--4----------2-----4-----|--5----------------------|--5----5--5--------------|
E|--2----2--2--0--0--2--2--|--3----3--3--3-----------|-------------------------|
                
e|---------------------------|--------------------------|---------------------|
B|---------------------------|--------------------------|--19~----------------|
G|-------------4/--6h--7--6--|------------------6~------|---------------------|
D|--5------------------------|--7-----------------------|---------------------|
A|--5------------------------|--7-----------------------|---------------------|
E|--3----3--3----------------|--5----5--5--5------------|---------------------|

e|----------------------|--------------------------|---------------------------|
B|--17\-----------------|--15~-----------15br------|--14~----------------------|
G|----------------------|--------------------------|-------------14------------|
D|----------------------|--------------------------|-------------------12--12--|
A|----------------------|--------------------------|---------------------------|
E|----------------------|--------------------------|---------------------------|
         
e|-------------------------------|-------------------------|
B|-------------------------------|--------15---------------|
G|--/16~--------L----14----12----|--14----------11~--------|
D|-------------------------------|-------------------------|
A|-------------------------------|-------------------------|
E|-------------------------------|-------------------------|

e|--------------------------------|--------------------------|
B|--------------------------------|--14b------------15/--17--|
G|--/16~--------16----14----12----|--------------------------|
D|--------------------------------|--------------------------|
A|--------------------------------|--------------------------|
E|--------------------------------|--------------------------|
      
e|--14~-----------14pbr------|----------------------|---------------------------|
B|---------------------------|--17~-----------------|--15~-----------15pbr------|
G|---------------------------|----------------------|---------------------------|
D|---------------------------|----------------------|---------------------------|
A|---------------------------|----------------------|---------------------------|
E|---------------------------|----------------------|---------------------------|
   
e|--------14----17~---------|--19~----17----15----17b----|
B|--14----------------------|----------------------------|
G|--------------------------|----------------------------|
D|--------------------------|----------------------------|
A|--------------------------|----------------------------|
E|--------------------------|----------------------------|
   
e|--17~----15----14----17----|--19~----17----15----19----|
B|---------------------------|---------------------------|
G|---------------------------|---------------------------|
D|---------------------------|---------------------------|
A|---------------------------|---------------------------|
E|---------------------------|---------------------------|
  
e|--19pbr~----------------|----------------------|----------------------|
B|------------------------|----------------------|----------------------|
G|------------------------|--7----6----7---------|-----------------6----|
D|------------------------|----------------------|--7~--------9---------|
A|------------------------|-----------------9----|----------------------|
E|------------------------|----------------------|----------------------|
 
e|-----------------------|---------------------|--------------------------|
B|------------------7----|--10b----------------|--8----7--8--7-------8----|
G|--7----6--6--7---------|---------------------|----------------9---------|
D|-----------------------|---------------------|--------------------------|
A|-----------------------|---------------------|--------------------------|
E|-----------------------|---------------------|--------------------------|
  
e|------------------------|----------------------|------------------------------|
B|--7---------------------|----------------------|------------------------------|
G|-----9--7---------------|-----------------7----|----6b------------------------|
D|-----------9--7~--------|--9----7----5---------|----------7-------------------|
A|------------------------|----------------------|-------------7--5--4----------|
E|------------------------|----------------------|------------------------5~----|
 
e|----------------------|----------------------|--------7--10/--14--10----------|
B|----------------------|----------------------|-----7------------------12------|
G|--7----6----7---------|-----------------6----|--7-------------------------11--|
D|----------------------|--7~--------9---------|--------------------------------|
A|-----------------9----|----------------------|--------------------------------|
E|----------------------|----------------------|--------------------------------|
   
e|-------------------------------|--------------------------|
B|--10b~------10/-12-10~---------|--8----7--8--7-------8----|
G|-------------------------------|----------------9---------|
D|-------------------------------|--------------------------|
A|-------------------------------|--------------------------|
E|-------------------------------|--------------------------|
  
e|--------------10----14----|--15--14--12----------------------|
B|--7/----10----------------|--------------15--14--12----------|
G|--------------------------|--------------------------14--12--|
D|--------------------------|----------------------------------|
A|--------------------------|----------------------------------|
E|--------------------------|----------------------------------|
     
e|--------------------------------|
B|--------------------------------|
G|--18--16--14--------------------|
D|--------------17--16--14/--7----|
A|--------------------------------|
E|--------------------------------|

e|---------------9-12/--17--12-------------------|
B|------------10----------------14---------------|
G|----------9----------------------14------------|
D|-------11---------------------------14---------|
A|--7-12---------------------------------12/-16--|
E|-----------------------------------------------|
 
e|--21-17-------17-12----------------------|--17~----14--15--17~----14--15--|
B|--------17----------14-------------------|--------------------------------|
G|-----------18----------14----------------|--------------------------------|
D|--------------------------14-------------|--------------------------------|
A|-----------------------------12~---------|--------------------------------|
E|-----------------------------------------|--------------------------------|

e|--17----------------------14--15--|--14~------------14~------------|
B|--------------14--15--17----------|---------15--17-----------------|
G|------14--16----------------------|--------------------------------|
D|----------------------------------|------------------------16--17--|
A|----------------------------------|--------------------------------|
E|----------------------------------|--------------------------------|

e|----------------------------------|--------------------------------|
B|----------------------15--14--15--|--------------------------------|
G|--14--16--14------14--------------|---------16--14-----------------|
D|--------------17------------------|--17~------------17~----16--14--|
A|----------------------------------|--------------------------------|
E|----------------------------------|--------------------------------|

e|----------------------------------|--------------------------------|
B|----------------------------------|------------------------14--15--|
G|--------------------------14--16--|---------16--14--16~------------|
D|--16--14------14--16--17----------|--17~---------------------------|
A|----------17----------------------|--------------------------------|
E|----------------------------------|--------------------------------|

e|----------------------14--15--17--|--14~------------14~------------|
B|----------14--15--17--------------|---------15--17---------17--15--|
G|--14--16--------------------------|--------------------------------|
D|----------------------------------|--------------------------------|
A|----------------------------------|--------------------------------|
E|----------------------------------|--------------------------------|
 
e|---------------------------------|--------------------------------|
B|--17--14--15--17--17b----15--14--|--15~--------14--15~------------|
G|---------------------------------|---------16---------------------|
D|---------------------------------|------------------------16--17--|
A|---------------------------------|--------------------------------|
E|---------------------------------|--------------------------------|

e|----------------------------------|--------------------------------|
B|----------------------15--14--15--|---------15--14-----------------|
G|--14--16--14------14--------------|--16~------------16~----14------|
D|--------------17------------------|----------------------------17--|
A|----------------------------------|--------------------------------|
E|----------------------------------|--------------------------------|

e|----------------------------------|--------------------------------|
B|--------------------------14--15--|---------15--14--15~----14------|
G|--14--------------14--16----------|--16~-----------------------16--|
D|------17--16--17------------------|--------------------------------|
A|----------------------------------|--------------------------------|
E|----------------------------------|--------------------------------|

e|----------------------------------|-------------------------|
B|--14--15--17--15--14--15------14--|--15~--------8--7--------|
G|--------------------------16------|-------------------------|
D|----------------------------------|-------------------------|
A|----------------------------------|-------------------5--5--|
E|----------------------------------|-------------------------|

e|-------------------------|-------------------------|-------------------------|
B|-------------5--7--------|-------------2-----3-----|-------------------------|
G|-------------------------|--4----------------------|-------------------------|
D|--7----------------------|--4----------------------|--4----------2-----4-----|
A|--7----------------0--0--|--2----2--2-----2-----2--|--4----------2-----4-----|
E|--5----5--5--------------|-------------------------|--2----2--2--0--0--2--2--|

e|-------------------------|-------------------------|---------------------------|
B|-------------------------|-------------8--7--5-----|---------------------------|
G|----------------4/----6--|--7-------------------7--|-------------4/--6h--7--6--|
D|--5-------------5/----7--|--7----------------------|--5------------------------|
A|--5----------------------|--5----5--5--------------|--5------------------------|
E|--3----3--3--3-----------|-------------------------|--3----3--3----------------|

e|--------------------------------------------------|----------------------|
B|--------------------------------------14--15--17--|--17b~----------------|
G|--------------14--16--18--14--16--18--------------|----------------------|
D|--14--16--17--------------------------------------|----------------------|
A|--------------------------------------------------|----------------------|
E|--------------------------------------------------|----------------------|

e|------------------------|-----------------------------|
B|----17b-----------------|--15~-------------15brb------|
G|------------------------|-----------------------------|
D|------------------------|-----------------------------|
A|------------------------|-----------------------------|
E|------------------------|-----------------------------|
 
e|---------------------------|----------------------------|
B|--14~----------------------|----------------------------|
G|-------------14------------|----16~--------L--14----12--|
D|-------------------12--12--|----------------------------|
A|---------------------------|----------------------------|
E|---------------------------|----------------------------|

e|-------------------------|--------------------------------------------------|
B|--------15---------------|--------------12-12-12-12-14-14-14-14-15-15-15-15-|
G|--14----------11~--------|--12-12-12-12-------------------------------------|
D|-------------------------|--------------------------------------------------|
A|-------------------------|--------------------------------------------------|
E|-------------------------|--------------------------------------------------|
 
e|-----------14-15-17-15-14----------------------------|----------------------|
B|--14-15-17----------------17-15-14----------14-15-17-|--17b~------------22--|
G|-----------------------------------16-14-16----------|----------------------|
D|-----------------------------------------------------|----------------------|
A|-----------------------------------------------------|----------------------|
E|-----------------------------------------------------|----------------------|
       
e|---------------------------|--------------------------|
B|--17pbr--------15----14----|--15~-----------15pbr-----|
G|---------------------------|--------------------------|
D|---------------------------|--------------------------|
A|---------------------------|--------------------------|
E|---------------------------|--------------------------|
  
e|--------14----17~---------|--19~----17----15----19----|
B|--14----------------------|---------------------------|
G|--------------------------|---------------------------|
D|--------------------------|---------------------------|
A|--------------------------|---------------------------|
E|--------------------------|---------------------------|

e|--17~----21----21b~--------|--19-15----------15-19-15-19-15----------15-19-15-|
B|---------------------------|--------15----15----------------15----15----------|
G|---------------------------|-----------16----------------------16-------------|
D|---------------------------|--------------------------------------------------|
A|---------------------------|--------------------------------------------------|
E|---------------------------|--------------------------------------------------|

e|--21-17-------21-17------------------|---------------------------|
B|--------17----------17---------------|---------------------------|
G|-----------18----------18/-9~--------|--7-----6-----7------------|
D|-------------------------------------|-----0-----0-----0--4h--5--|
A|-------------------------------------|---------------------------|
E|-------------------------------------|---------------------------|
   
e|-------------------------------|--------------------------|
B|-------------------------------|--3--0--2--0--3--0--7--0--|
G|------------------------6/--2--|--------------------------|
D|--7/--9--7p--6h--7h--9---------|--------------------------|
A|-------------------------------|--------------------------|
E|-------------------------------|--------------------------|

e|----------------------------|-----------------------------|
B|----10---------------7--10--|--12--0--10--0--8--0--12--0--|
G|------------6--7--9---------|-----------------------------|
D|----------------------------|-----------------------------|
A|----------------------------|-----------------------------|
E|----------------------------|-----------------------------|
 
e|--------------------------------|
B|--10------------10--15~---------|
G|------------11------------------|
D|--------12----------------------|
A|--------------------------------|
E|--------------------------------|

e|--------------------------------------------------|
B|--15-12----------------12-15-12----------------12-|
G|--------12----------12----------12----------12----|
D|-----------12----12----------------12----12-------|
A|--------------14----------------------14----------|
E|--------------------------------------------------|

 
e|------------------------------------|---------------------------|
B|--17-14-------17-14-----------------|---------------------------|
G|--------14----------14--------------|--7-----6-----7------------|
D|-----------14----------14-7~--------|-----0-----0-----0--4h--5--|
A|------------------------------------|---------------------------|
E|------------------------------------|---------------------------|


e|-------------------------------|--------------------------|
B|-------------------------------|--3--0--2--0--3--0--7--0--|
G|------------------------6/--2--|--------------------------|
D|--7/--9--7p--6h--7h--9---------|--------------------------|
A|-------------------------------|--------------------------|
E|-------------------------------|--------------------------|

  
e|-----------------------|-----------------------------|
B|----10b----------------|--12--0--10--0--8--0--12--0--|
G|-----------------------|-----------------------------|
D|-----------------------|-----------------------------|
A|-----------------------|-----------------------------|
E|-----------------------|-----------------------------|


e|------------------10-14-17-14----------14-17-|
B|--10~----------10-------------15----15-------|
G|------------11-------------------14----------|
D|---------12----------------------------------|
A|---------------------------------------------|
E|---------------------------------------------|

 
e|--19-15----------15-19-15-19-15----------15-19-15-|--19b~-----------------|
B|--------15----15----------------15----15----------|-----------------------|
G|-----------16----------------------16-------------|-----------------------|
D|--------------------------------------------------|-----------------------|
A|--------------------------------------------------|-----------------------|
E|--------------------------------------------------|-----------------------|

 
e|--17~----14--15--17~----14--15--|--17----------------------14--15--|
B|--------------------------------|--------------14--15--17----------|
G|--------------------------------|------14--16----------------------|
D|--------------------------------|----------------------------------|
A|--------------------------------|----------------------------------|
E|--------------------------------|----------------------------------|

  
e|--14~------------14~------------|----------------------------------|
B|---------15--17-----------------|----------------------15--14--15--|
G|--------------------------------|--14--16--14------14--------------|
D|------------------------16--17--|--------------17------------------|
A|--------------------------------|----------------------------------|
E|--------------------------------|----------------------------------|

  
e|--------------------------------|----------------------------------|
B|--------------------------------|----------------------------------|
G|---------16--14-----------------|--------------------------14--16--|
D|--17~------------17~----16--14--|--16--14------14--16--17----------|
A|--------------------------------|----------17----------------------|
E|--------------------------------|----------------------------------|

  
e|--------------------------------|----------------------14--15--17--|
B|------------------------14--15--|----------14--15--17--------------|
G|---------16--14--16~------------|--14--16--------------------------|
D|--17~---------------------------|----------------------------------|
A|--------------------------------|----------------------------------|
E|--------------------------------|----------------------------------|


e|--14~------------14~------------|---------------------------------|
B|---------15--17---------17--15--|--17--14--15--17--17b----15--14--|
G|--------------------------------|---------------------------------|
D|--------------------------------|---------------------------------|
A|--------------------------------|---------------------------------|
E|--------------------------------|---------------------------------|


e|--------------------------------|----------------------------------|
B|--15~--------14--15~------------|----------------------15--14--15--|
G|---------16---------------------|--14--16--14------14--------------|
D|------------------------16--17--|--------------17------------------|
A|--------------------------------|----------------------------------|
E|--------------------------------|----------------------------------|


e|--------------------------------|----------------------------------|
B|---------15--14-----------------|--------------------------14--15--|
G|--16~------------16~----14------|--14--------------14--16----------|
D|----------------------------17--|------17--16--17------------------|
A|--------------------------------|----------------------------------|
E|--------------------------------|----------------------------------|

  
e|--------------------------------|----------------------------------|
B|---------15--14--15~----14------|--14--15--17--15--14--15------14--|
G|--16~-----------------------16--|--------------------------16------|
D|--------------------------------|----------------------------------|
A|--------------------------------|----------------------------------|
E|--------------------------------|----------------------------------|

   
e|------------------------------|---------------------|--------------------------|
B|--15~-------------------------|---------------------|--------------------------|
G|------------------------------|---------------------|--------------------------|
D|------------------------------|--7~-----------------|--7----9----7h--9p-7-5----|
A|------------------------------|---------------------|--------------------------|
E|------------------------------|---------------------|--------------------------|

 
e|---------------------|--------------------------|----------------------|
B|---------------------|--7----8----7h--8p-7------|----------------------|
G|---------------------|---------------------9----|--7----6----4----6----|
D|--4~-----------------|--------------------------|----------------------|
A|---------------------|--------------------------|----------------------|
E|---------------------|--------------------------|----------------------|

             
e|---------------------|----------------------|--------------------|
B|---------------------|----------------------|--------------------|
G|--7~-----------------|--7----6----4----5----|--6~----------------|
D|---------------------|----------------------|--------------------|
A|---------------------|----------------------|--------------------|
E|---------------------|----------------------|--------------------|


e|---------------------------|---------------------------------|
B|---------------------------|---------------------------------|
G|--7-----6-----7-----11-----|--11/--14-----12/--11-----9/--6--|
D|-----0-----0-----0------0--|-----------0-----------0---------|
A|---------------------------|---------------------------------|
E|---------------------------|---------------------------------|


e|---------------------------|-----------------------------------|
B|---------------------------|--------------------------14/--10--|
G|--7-----6-----7-----11-----|--11/--14-----16/--14--------------|
D|-----0-----0-----0------0--|-----------0-----------0-----------|
A|---------------------------|-----------------------------------|
E|---------------------------|-----------------------------------|


e|--------------------------------------------|
B|--12--12--10--12--8--12--7--10--8--7--------|
G|--------------------------------------9--7--|
D|--------------------------------------------|
A|--------------------------------------------|
E|--------------------------------------------|

 
e|-------------------------------------------|
B|--10--10--8--10--7--10---------------------|
G|------------------------9--7/--6-----------|
D|----------------------------------9--7--5--|
A|-------------------------------------------|
E|-------------------------------------------|


e|--------------------------------------|
B|-----------------------------5--7--8--|
G|-----------4--6--7--4--6--7-----------|
D|--4--5--7-----------------------------|
A|--------------------------------------|
E|--------------------------------------|


e|-----------5--7--9--10-7-9-10-12-9-10-12-|
B|--5--7--8--------------------------------|
G|-----------------------------------------|
D|-----------------------------------------|
A|-----------------------------------------|
E|-----------------------------------------|

 
e|--14-10----------10-14-10-14-10----------10-14-10-|
B|--------10----10----------------10----10----------|
G|-----------11----------------------11-------------|
D|--------------------------------------------------|
A|--------------------------------------------------|
E|--------------------------------------------------|

 
e|--12-9---------9-12-9-14-9------12-9------|
B|-------10---10-------------10--------10---|
G|----------9-------------------9---------9-|
D|------------------------------------------|
A|------------------------------------------|
E|------------------------------------------|

 
e|--10-7-------7-10-7-10-7-------7-10-7-|--9-5-------5-9-5-5-2-----5-2-----|
B|-------7---7-------------7---7--------|------7---7-----------2-------2---|
G|---------7-----------------7----------|--------6---------------2-------2-|
D|--------------------------------------|----------------------------------|
A|--------------------------------------|----------------------------------|
E|--------------------------------------|----------------------------------|

 
e|--7-3-------3-7-3-10-7-------7-10-7-|
B|------3---3------------8---8--------|
G|--------4----------------7----------|
D|------------------------------------|
A|------------------------------------|
E|------------------------------------|


e|--14-10-------14-10-------15-10-------17-14-------|
B|--------10----------10----------10----------15----|
G|-----------11----------11----------11----------14-|
D|--------------------------------------------------|
A|--------------------------------------------------|
E|--------------------------------------------------|


e|--19-15----------15-19-15-19-15----------15-19-15-|
B|--------15----15----------------15----15----------|
G|-----------16----------------------16-------------|
D|--------------------------------------------------|
A|--------------------------------------------------|
E|--------------------------------------------------|


e|--17-12--------------------------------------|--17~----13--15--17~----13--15--|
B|--------14----17-14--------------------------|--------------------------------|
G|-----------14-------14----18-14--------------|--------------------------------|
D|-----------------------14-------14-----------|--------------------------------|
A|-----------------------------------16-12~----|--------------------------------|
E|---------------------------------------------|--------------------------------|

 
e|--17----------------------13--15--|--13~------------13~------------|
B|--------------14--15--17----------|---------15--17-----------------|
G|------14--15----------------------|--------------------------------|
D|----------------------------------|------------------------15--17--|
A|----------------------------------|--------------------------------|
E|----------------------------------|--------------------------------|


e|----------------------------------|--------------------------------|
B|----------------------15--14--15--|--11~----15--13--11~------------|
G|--14--15--14------14--------------|------------------------14--12--|
D|--------------17------------------|--------------------------------|
A|----------------------------------|--------------------------------|
E|----------------------------------|--------------------------------|


e|----------------------------------|------------------------12--13--|
B|----------------------11--14--15--|--11~----15--14--15~------------|
G|--14--12--10--12--14--------------|--------------------------------|
D|----------------------------------|--------------------------------|
A|----------------------------------|--------------------------------|
E|----------------------------------|--------------------------------|


e|----------------------13--15--17--|--13~------------13~------------|
B|----------14--15--17--------------|---------15--17---------17--15--|
G|--14--15--------------------------|--------------------------------|
D|----------------------------------|--------------------------------|
A|----------------------------------|--------------------------------|
E|----------------------------------|--------------------------------|

   
e|---------------------------------|--------------------------------|
B|--17--14--15--17--17b----15--14--|--15~--------14--15~------------|
G|---------------------------------|---------15---------------------|
D|---------------------------------|------------------------15--17--|
A|---------------------------------|--------------------------------|
E|---------------------------------|--------------------------------|

  
e|----------------------------------|--------------------------------|
B|----------------------15--14--15--|--11~----15--13--11~------------|
G|--14--15--14------14--------------|------------------------14--12--|
D|--------------17------------------|--------------------------------|
A|----------------------------------|--------------------------------|
E|----------------------------------|--------------------------------|

 
e|----------------------------------|------------------------------------|
B|----------------------11--14--15--|--11~----15--14--15~----------------|
G|--14--12--10--12--14--------------|------------------------------------|
D|----------------------------------|------------------------------------|
A|----------------------------------|------------------------12--14--16--|
E|----------------------------------|------------------------------------|

                
e|--------------------------------------14--15--17--|-------------------|
B|--------------------------14--15--17--------------|-------------------|
G|--------------12--14--16--------------------------|-------------------|
D|--12--14--16--------------------------------------|-------------------|
A|--------------------------------------------------|-------------------|
E|--------------------------------------------------|-------------------|

 
e|--17----------------------14--15--|--14~------------14~----14--15--|
B|--------------14--15--17----------|---------15--17-----------------|
G|------14--16----------------------|--------------------------------|
D|----------------------------------|--------------------------------|
A|----------------------------------|--------------------------------|
E|----------------------------------|--------------------------------|

  
e|--17--19--17--15--17----19----21----|--21b~--------L----21----19----|
B|------------------------------------|-------------------------------|
G|------------------------------------|-------------------------------|
D|------------------------------------|-------------------------------|
A|------------------------------------|-------------------------------|
E|------------------------------------|-------------------------------|

  
e|--17~------14h-17h-19p-17p-14h-17p-14------------|
B|--------------------------------------17h-19p-17-|
G|-------------------------------------------------|
D|-------------------------------------------------|
A|-------------------------------------------------|
E|-------------------------------------------------|


e|---------------------------------------------------------------|
B|--19p-17p-15h-17p-15-------------------------------------------|
G|---------------------16h-19p-16p-14h-16p-14--------------------|
D|--------------------------------------------16h-19p-16p-14h-16-|
A|---------------------------------------------------------------|
E|---------------------------------------------------------------|

       
e|----------------------------------------------------|
B|----------------------------------------------------|
G|----------------------------------------------------|
D|--19p-16p-14h-16p-14--------------------------------|
A|---------------------19p-16p-14h-16p-14p-12~--------|
E|----------------------------------------------------|

  
e|--17~----14--15--17~----14--15--|
B|--------------------------------|
G|--------------------------------|
D|--------------------------------|
A|--------------------------------|
E|--------------------------------|

                
e|--18--18--15--18--14--18------18------18------18--|--19b~----------------|
B|--------------------------17------15------14------|----------------------|
G|--------------------------------------------------|----------------------|
D|--------------------------------------------------|----------------------|
A|--------------------------------------------------|----------------------|
E|--------------------------------------------------|----------------------|


e|-------19p--17------------------|--17b~------------17--15--|
B|----------------19--18--17--15--|--------------------------|
G|--------------------------------|--------------------------|
D|--------------------------------|--------------------------|
A|--------------------------------|--------------------------|
E|--------------------------------|--------------------------|

 
e|--14----15h-17p-15p-14--------------------------------|
B|-----------------------17p-15p-14/-12h-14h-15p-14p-12-|
G|------------------------------------------------------|
D|------------------------------------------------------|
A|------------------------------------------------------|
E|------------------------------------------------------|

 
e|--------------------------------------------------------------|
B|--------------------------------------------------------------|
G|--14p-12p-11h-12h-14p-12p-11/-9h-11h-12p-11p-9----------------|
D|-----------------------------------------------12p-11p-9h-11h-|
A|--------------------------------------------------------------|
E|--------------------------------------------------------------|

   
e|-------------------------------------------|------------------17----|
B|-------------------------------------------|--15~-------------------|
G|-------------------------------------------|------------------------|
D|--12p-11p-9h-11h-12p-11p-9h-11p-7~---------|------------------------|
A|-------------------------------------------|------------------------|
E|-------------------------------------------|------------------------|

  
e|--17b--------17----15----|--14-------------14----|--14----15----14----------|
B|-------------------------|-----------------------|--------------------17----|
G|-------------------------|-----------------------|--------------------------|
D|-------------------------|-----------------------|--------------------------|
A|-------------------------|-----------------------|--------------------------|
E|-------------------------|-----------------------|--------------------------|


e|----------------------------|--------------------------------------------|
B|--15----14----12--0--14--0--|--15~--------14h-15p-14h-15p-14h-15p-14h-15-|
G|----------------------------|--------------------------------------------|
D|----------------------------|--------------------------------------------|
A|----------------------------|--------------------------------------------|
E|----------------------------|--------------------------------------------|


e|--------------------------------|--------17-12----------------------|
B|----15~----14--0--12--0--13--0--|--14----------14-------------------|
G|--------------------------------|-----------------14----------------|
D|--------------------------------|--------------------14-------------|
A|--------------------------------|-----------------------12~---------|
E|--------------------------------|-----------------------------------|


e|------------------17----|--17b--------17----15h--17p--15--|
B|--15~-------------------|---------------------------------|
G|------------------------|---------------------------------|
D|------------------------|---------------------------------|
A|------------------------|---------------------------------|
E|------------------------|---------------------------------|

     
e|--14------17------17----|--20b----------------|--19~--------19----21----|
B|------------------------|---------------------|-------------------------|
G|------------------------|---------------------|-------------------------|
D|------------------------|---------------------|-------------------------|
A|------------------------|---------------------|-------------------------|
E|------------------------|---------------------|-------------------------|

   
e|--21b------17~---L--------|--19/----17--17/----15--15/----|
B|--------------------------|-------------------------------|
G|--------------------------|-------------------------------|
D|--------------------------|-------------------------------|
A|--------------------------|-------------------------------|
E|--------------------------|-------------------------------|

 
e|--14--14/----12--12-----------|--------------------------------|
B|------------------------------|---------10--10/--12p--10/--8/--|
G|-----------------------14/----|--7-----------------------------|
D|------------------------------|--------------------------------|
A|------------------------------|--------------------------------|
E|------------------------------|--------------------------------|

 
e|--------------------------------|-----------------------------|
B|--7-------7--7h--8p--7h-8p-7----|-----------------------------|
G|-----------------------------9--|--7p--6p--4h--6h--7~---------|
D|--------------------------------|-----------------------------|
A|--------------------------------|-----------------------------|
E|--------------------------------|-----------------------------|

 
e|------------------------------|------------17--17b----17p--15--|
B|------------------------------|--15~---------------------------|
G|--7p--6p--4h--5h--6/----14----|--------------------------------|
D|------------------------------|--------------------------------|
A|------------------------------|--------------------------------|
E|------------------------------|--------------------------------|

 
e|--14~-------14--14h--15p--14------|--------------------------------|
B|------------------------------17--|--15p--14--12h--14--15~---------|
G|----------------------------------|--------------------------------|
D|----------------------------------|--------------------------------|
A|----------------------------------|--------------------------------|
E|----------------------------------|--------------------------------|

   
e|------------------------------------|---------------------|
B|--15p--14--12h--13--14~------15/-17-|--15~----------------|
G|------------------------------------|---------------------|
D|------------------------------------|---------------------|
A|------------------------------------|---------------------|
E|------------------------------------|---------------------|


***********************************
| h    hammer on
| p    pull off
| b    bend
| br   bendRelease
| pbr  preBendRelease
| ~    vibrato
| /    slide up
| \    slide down
***********************************
Suggest correction new What's this?
You can suggest a correction to this tab. Community and Mods will review your correction and vote to approve or reject it.
comments
print report bad tab
248 comments total. Showing first comments.
+11 reply
strutter 12 wrote on January 14 2006, 01:14 pm

Awesome tab, This tab is much easier to read then the guitar pro version if you only read tablature. Thanks for the great tab, printing now =) I know a couple people who heard this song and instantly went out and bought a guitar, good to see they have the tab for it now lol

+18 reply
Swiftfury 256 wrote on January 21 2006, 10:27 pm

Ey, Jerry you are the man dude. Friggin awesome song, just i'm wondering where i can get the music WITHOUT the solo guitar so i can play it myself. Thanks again mate, cheers

+6 reply
Skytitan 18 wrote on February 8 2006, 06:02 am

nice tab, it helps me to play it easy, tnx

guest
You may want to rate the tab now too:
select rating
Please do not post tabs as comments. Select "correction" instead!