Oops, an error
Loading. Please wait.

Whose Autumn Tab

version 1
version 1

Intro

Whole song

Interactive

3,735 views 1 this week
6 commentsread comments
1 2 3 4 5
x 5
add to favorites
launch autoscroll
font size
0
reset
how to read this tab
guitar tuner
Autoscroll
slow
fast
+/-
esc
set tempo
stop
Help us to improve Ultimate-Guitar.com Take our survey!
×
Author
Difficulty
intermediate
/ - slide up
\ - slide down
~ - vibrato
b - bend
r - release bend
h - hammer on
p - pull off
t - tapping (i'm not sure though whether in this song he uses tapping or harmonics,
since you still have to keep the C chord ringing, i still havent advanced that much
yet, but tapping works for me)

                    pm..
E|-------------------------------------------------------------|
B|---------8------------------7--/12\7-------------------------|
G|----7/9------7~---------6/8----------8\7-p5---7p5-7p5-7/9----|
D|--5---------------5-5-5-----------------------------------7~-|
A|-------------------------------------------------------------|
E|-------------------------------------------------------------|

E|-------------------------------------------------------------|
B|-------------------------------------------------------------|
G|--7p5-7p5-7/9-7~--b9-5~--------------------------------------|
D|-------------------------------------------------------------|
A|-------------------------------------------------------------|
E|-------------------------------------------------------------|


                    pm..
E|----------5-------------------------8--8-8-8-----------------|
B|-----5-------------------------5-------------5b7r5-----------|
G|--5----h7-----5-5-5--5--5-5-5----h7----------------7p5-------|
D|-------------------------------------------------------7\5---|
A|-------------------------------------------------------------|
E|-------------------------------------------------------------|


             C
E|---------------0---------------------------------------------|
B|--------------1-------------t15------------------------------|
G|-------------0------------------------t17--t15---------------|
D|--2/3-\-2---2--------t15------------------------t17----------|
A|-----------3-------------------------------------------------|
E|-------------------------------------------------------------|

questions and suggestions - spp8969@yahoo.com
Suggest correction
comments
print report bad tab
6 comments total. Showing first comments.
0 reply
Portuguese_boy 204 Feb 26, 2006 11:28 AM

just awsome

0 reply
l_ampao_l 101 Apr 09, 2006 12:52 AM

cool, but a few mistakes though. this is my version, im not sure about it.

E|-------------------------------------------------------------|
B|---------8--------------------8/12\8-------------------------|
G|----7/9------7~---------7/9----------8\7-p5---7p5-7p5-7/9----|
D|--5-----------------5-5-----------------------------------7~-|
A|-------------------------------------------------------------|
E|-------------------------------------------------------------|

0 reply
sebhaque 40 Apr 10, 2006 05:45 PM

this song is amazing. good tab, too.

guest
You may want to rate the tab now too:
select rating
Wanna post a correction for this tab? Suggest correction