Oops, an error
Loading. Please wait.

Whose Autumn Tab

version 1
version 1

Whole song

Interactive

10,122 views 3 this week
7 commentsread comments
1 2 3 4 5
x 8
add to favorites
launch autoscroll
font size
0
reset
how to read this tab
guitar tuner
Autoscroll
slow
fast
+/-
esc
set tempo
stop
Help us to improve Ultimate-Guitar.com Take our survey!
×
Whose Autumn tab by JerryC


		 p.m.
E--------------:--------------------:-------------------:
B-------8------:---------8s12s8-----:-------------------:
G---7s9---9s7--:-----7s9--------9s7-:-7s5-7p5h7p5-7s9---:
D-5------------:-5-5----------------:-----------------7-:
A--------------:--------------------:-------------------:
e--------------:--------------------:-------------------:

			       pm  pm       pm
E-------------------:-------------------:-------------8-88-88------:
B-------------------:--------8----------:---------------------5br--:
G-7p5h7p5-7s9-7br-5-:--5h7p5---5-5-5----:-5-5---5h7p5--------------:
D-------------------:-------------------:--------------------------:
A-------------------:-------------------:--------------------------:
e-------------------:-------------------:--------------------------:

		 	 th th th th th
E-------------------:-0-----12-----------:-------------:
B-------------------:-1--------13--------:-------8-----:
G-7p5---------------:-0--12-------12-----:-7s9-9---9s7-:
D-----7s5--2s3s2----:-2--------------14--:-------------:
A-------------------:-3------------------:-------------:
e-------------------:-0------------------:-------------:

  p.m.
E-------------------:----------------------:--------------------:
B------------8s12s8-:----------------------:--------------------:
G-----7s9-9---------:-9s7p5--7p5h7p5-7s9---:-7p5h7p5-7s9-7br-5--:
D-5-5---------------:--------------------7-:--------------------:
A-------------------:----------------------:--------------------:
e-------------------:----------------------:--------------------:

     pm   p.m.                          pm pm
E-------------------:---------------------------------------:
B-8-----------------:---------------------------------------:
G---5-5-5-5-5-5-----:-7s5-------7br-5-5-5-5-5-5-5--------5--:
D-------------------:-----7p5----------------------5-5h7----:
A-------------------:---------------------------------------:
e-------------------:---------------------------------------:

	       th		    p.m.
E-------------------:-------------:-------------------:
B-------------------:-------8-----:------------8s12s8-:
G-----5h7p5----17---:-7s9-9---9s7-:-----7s9-9---------:
D-5h7---------------:-------------:-5-5---------------:
A-------------------:-------------:-------------------:
e-------------------:-------------:-------------------:

		  ah   p.m.			 ah
E--------------------:------------------------------------:
B--------------------:-----------------8------------------:
G-7s5-7p5h7p5-7s9----:-0-0-7p5-7p5-7s9---7s5-7p5-7p5------:
D-----------------7--:-------------------------------7p5--:
A--------------------:------------------------------------:
e--------------------:------------------------------------:

E----------------:--------------------:--------------------:
B-10s13-13-10s8--:-10s13-13-10s8------:-12b-12b------------:
G----------------:---------------9s12-:----------12-7s10-9-:
D----------------:--------------------:--------------------:
A----------------:--------------------:--------------------:
e----------------:--------------------:--------------------:
						     ah
E-12-12-12s13s12-12-:-12br-10--15-------------------------:
B-------------------:--------13---------------------------:
G---9---------------:-------------12-14--14-14s9-8-7-5----:
D-------------------:------------------12-----------------:
A-------------------:-------------------------------------:
e-------------------:-------------------------------------:
      			   p.m.
E-------------------------:------------|
B-------------------------:------------|
G-5-6----------13s15s13---:-5-5-5h7-5--|
D-----5-s12-13------------:------------|
A-------------------------:------------|
e-------------------------:------------|

Legends:

pm  - palm mute
s   - slide
h   - hammer on
p   - pull off
b   - bend
r   - release
th  - tap harmonics
ah  - artificial/pinch harm.


I'll just the other part when i have time...
please rate it'!
Suggest correction
comments
print report bad tab
7 comments total. Showing first comments.
0 reply
Vile_pumpkin 41 Dec 28, 2006 03:35 AM

OH! i SumBitTed BuT i ForGOt to SiGn iN!!! oH Crap!! Oh weLL,, Here It iS...

0 reply
Vile_pumpkin 41 Dec 28, 2006 03:37 AM

OH!! HolY CrAp!!! i DiD Submit A TaB BuT I ForGot to SiGn in!!! Oh well...

---------------------------------------------------------------------

" the strong shall live and the weak shall die"

0 reply
Vile_pumpkin 41 Dec 28, 2006 03:38 AM

Darn!

LOL!

guest
You may want to rate the tab now too:
select rating
Wanna post a correction for this tab? Suggest correction