Oops, an error
Loading. Please wait.

Cheap Wine And Cigarettes Chords

8,496 views 33 this week
no commentswrite comment
1 2 3 4 5
excellent!
x 6
add to favorites
launch autoscroll
font size
0
reset
transpose
0
reset
simplify chords
display chords
guitar tuner
Autoscroll
slow
fast
+/-
esc
set tempo
stop
Help us to improve Ultimate-Guitar.com Take our survey!
×
Author
Difficulty
Capo
intermediate
3rd fret
-------------------------------------------------------------------------------
                Cheap Wine and Cigarettes - Jess Moskaluke
-------------------------------------------------------------------------------
Tabbed by: Tristan S

This is a Personal Interpretation of the Song

Capo on 3rd fret;

 INTRO Patterns:
                        All Downstrokes*                                  Second Guitar
                                                                          May also Use C
   Em Pattern     G Pattern      D Pattern    Cadd9 Pattern              in place of Cadd9
e|--0--0--0-----3--3--3--3--3-----2--0--2-----3--3--3--3--3-----|     |--0--0--0--0--0--|
B|--0--0--0-----3--3--3--3--3-----3--3--3-----3--3--3--3--3-----|     |--1--1--1--1--1--|
G|--0--0--0-----0--0--0--0--0-----2--0--2-----0--0--0--0--0-----|     |--0--0--0--0--0--|
D|--2--0--2-----0--0--0--0--0-----0--0--0-----2--2--2--2--2-----|     |--2--2--2--2--2--|
A|--2--0--2-----2--2--2--2--2-----x--x--x-----3--3--3--3--3-----|     |--3--3--3--3--3--|
E|--0--0--0-----3--3--3--3--3-----x--x--x-----x--x--x--x--x-----| x2  |--x--x--x--x--x--|
      (V)                           (V)

For second guitar (Clean Sound), Do same pattern but skip variations(V)
and just do regular chords, same downstrokes.


Vocals start at end of INTRO on last Cadd9 Chord

Same Pattern as INTRO Continued:

             Em    G
 You call me up
D         Cadd9
 When you get lonely
         Em     G
 Make me feel
D         Cadd9           Em     G
 Like I?m the only one you love
D         Cadd9           Em     G
 And when I just cant get enough
D     Cadd9
  Hey   hey like

FIRST CHORUS:

(Lead Guitar use Minimal Distortion)
(Second Guitar stay Clean)                                     Second Guitar
                                                               May also Use C
            Em       G           D        Cadd9              in place of Cadd9
        e|--0--0-----3--3--3-----2--2-----3--3--3-----|       |--0--0--0--|
        B|--0--0-----3--3--3-----3--3-----3--3--3-----|       |--1--1--1--|
        G|--0--0-----0--0--0-----2--2-----0--0--0-----|       |--0--0--0--|
        D|--2--2-----0--0--0-----0--0-----2--2--2-----|       |--2--2--2--|
        A|--2--2-----2--2--2-----x--x-----3--3--3-----|       |--3--3--3--|
        E|--0--0-----3--3--3-----x--x-----x--x--x-----|x2     |--x--x--x--|
Strokes:    D  D     U  U  D     D  D     U  U  D                U  U  D
(D=Down)
(U=Up)

 Em    G        D      Cadd9
 Cheap wine and cigarettes
 Em         G                D        Cadd9
 That kind of taste that you don?t forget
 Em         G               D    Cadd9
 You take me high and leave me a mess
           Em    G        D      Cadd9
 Just like cheap wine and cigarettes
 Em      G         D    Cadd9
 Hey yeah, Hey yeahhh
 Em      G
 Hey yeah, Hey yeahhh


VERSE:

(Same Pattern as INTRO)

               Em    G
 You?re like a curse
            D
 You know I want you
Cadd9                  Em    G
 Crazy wake up feeling worst
   D            Cadd9          Em     G
 Yeah but then the night comes around
D     Cadd9               Em   G
 Baby I just cant put you down
       D     Cadd9
 I can?t put you down like

 (Last Chord of Verse is one downstroke)


CHORUS:

(Same pattern and strokes as first CHORUS)

 Em    G        D      Cadd9
 Cheap wine and cigarettes
 Em         G                D        Cadd9
 That kind of taste that you don?t forget
 Em         G                D    Cadd9
 You take me high and leave me a mess
           Em    G        D      Cadd9
 Just like cheap wine and cigarettes


 -----SOLO----- (Coming Soon)


BRIDGE:

 (Only Vocals and Drums play during bridge)

 Your no good for me babe
 But I still give into you anyway
 Hey hey hey like


 CHORUS:

(Same pattern and strokes as first CHORUS)

 Em    G        D      Cadd9
 Cheap wine and cigarettes
 Em         G                D        Cadd9
 That kind of taste that you don?t forget
 Em         G               D    Cadd9
 You take me high and leave me a mess
           Em    G        D      Cadd9
 Just like cheap wine and cigarettes

         Em    G        D      Cadd9
 Hey Hey Cheap wine and cigarettes
 Em         G                D        Cadd9
 That kind of taste that you don?t forget
 Em         G               D    Cadd9
 You take me high and leave me a mess
           Em    G        D      Cadd9
 Just like cheap wine and cigarettes
 Em      G         D    Cadd9
 Hey yeah, Hey yeahhh
 Em      G
 Hey yeah, Hey yeahhh

 (Drums and Vocals end the song)


 END

************************************

| /   slide up
| \   slide down
| h   hammer-on
| p   pull-off
| ~   vibrato
| +   harmonic
| x   Mute note
| b   Bend
| pb  Pre-bend
| br  Bend release
| pbr Pre-bend release
| brb Bend release bend

************************************
Suggest correction
comments
print report bad tab
guest
You may want to rate the tab now too:
select rating
Please do not post tabs as comments. Select "correction" instead!