Oops, an error
Loading. Please wait.

Bakit Pa Tab

6,983 views 18 this week
no commentswrite comment
1 2 3 4 5
please rate
add to favorites
launch autoscroll
font size
0
reset
how to read this tab
guitar tuner
Autoscroll
slow
fast
+/-
esc
set tempo
stop
Help us to improve Ultimate-Guitar.com Take our survey!
×
Contributor
Difficulty
RiRaY 1,731
novice
------------------------------------------------------
	   "Bakit Pa" - Jessa Zaragoza
	   http://www.jessazaragoza.com
------------------------------------------------------
Tabbed by: Justin Riray
Youtube:   http://www.youtube.com/JustinRiray
Facebook:  http://www.facebook.com/riray

http://www.youtube.com/watch?v=Tb-oqAZPmb8
One of my favorite tagalog songs =D

Tuning: Standard

     INTRO
e|--1--4--2--6--1--1--|
B|--2--4--2--7--1--1--|
G|--3--5--3--8--3--2--|
D|--3--6--4--8--3--3--|
A|--1--6--4--6--3--3--|
E|-----4--2-----1--1--|

     VERSE
e|--1--6--2--6--4--1--|
B|--2--8--2--7--4--1--|
G|--3--8--3--8--6--2--|
D|--3--8--4--8--6--3--|
A|--1--6--4--6--4--3--|
E|--------2--------1--|

e|--1--6--2--4--4--6----|
B|--2--8--2--4--6--6----|
G|--3--8--3--5--6--7----|
D|--3--8--4--6--6--8----|
A|--1--6--4--6--4--8----|
E|--------2--4-----6----|

     CHORUS		  Post-CHORUS
e|--6--4--4--1-------|	e|--6--2--1--|
B|--7--4--4--2-------|	B|--7--2--1--|
G|--8--5--6--3-   *--|	G|--8--3--2--|
D|--8--6--6--3- X4 --|	D|--8--4--3--|
A|--6--6--4--1-    --|	A|--6--4--3--|
E|-----4-------------|	E|-----2--1--|
 *don't hit x13321 the 4th time around
 just stay on the x46644 for the end of the chorus
comments
We did not receive enough feedback on this tab! Please rate:
print report bad tab
1 2 3 4 5
I want to post or [tab]
guest
You may want to rate the tab now too:
select rating
Please do not post tabs as comments. Select "correction" instead!