Oops, an error
Loading. Please wait.

Beautiful Soul Acoustic tab

version 7
version 7

Interactive

265 views 6 this week
no commentswrite comment
1 2 3 4 5
2 more votes to show rating
add to favorites
×
Save as Personal and add changes to this tab that will be seen only by you. Learn more ›
×
You can save this tab as Personal to edit and correct it or add notes. All changes will be seen only by you. Learn more »
launch autoscroll
font size
0
reset
how to read this tab
guitar tuner
backing track
0:00
0:00
edit
Autoscroll
slow
fast
+/-
esc
set tempo
stop
Version as seen here: https://youtu.be/dFP_XtTeONI?t=1m16s
(chords under are relative to Standard >E< tuning shapes, not given tuning)


[INTRO]

eb|-------------------------x-------|-------------------------x-------|
Bb|-------5-----5-----------x-------|-------5-----3-----------x-------|
Gb|-----2-------4-----------x-------|-----2-------2-----------x-------|
Db|---2---------2-----------x-------|---4---------0-----------x-------|
Ab|-0-----------------------x-------|-------------------------x-------|
Eb|-------------4-----------x-------|-2-----------------------x-------|
    1 e + a 2 e + a 3 e + a 4 e + a   1 e + a 2 e + a 3 e + a 4 e + a
    A           E/G#                  F#m7        D

eb|-------------------------x-------|---------------------------------|
Bb|-------5-----------------x-------|-----2---------------------------|
Gb|-----2-------4-----------x-------|-----------2---------------------|
Db|---4---------2-----------x-------|---2-----2-----------------------|
Ab|-------------------------x-------|-0-----4-----5-------------------|
Eb|-2-----------4-----------x-------|---------------------------------|
    1 e + a 2 e + a 3 e + a 4 e + a   1 e + a 2 e + a 3 e + a 4 e + a
    F#m7        E/G#                  A     A/C#  D


[CHORUS 1]

eb|---------------------------------|---------------------------------|
Bb|-------5-----5-------------------|-------5-----3-------------------|
Gb|-------------4-------------------|-------------2-------------------|
Db|-------------2-------------------|---4---------0-------------------|
Ab|-0-------------------------------|---------------------------------|
Eb|-------------4-------------------|-2-------------------------------|
    1 e + a 2 e + a 3 e + a 4 e + a   1 e + a 2 e + a 3 e + a 4 e + a
    A           E/G#                  F#m7        D6

eb|---------------------------------|-------------------------x-------|
Bb|-------5-------------------------|-------------------------x-------|
Gb|-----2-------4-------------------|-----2-----2-------------x-------|
Db|---4---------2-------------------|---2-----2---------------x-------|
Ab|---------------------------------|-0-----4-----5---\-------x---x-x-|
Eb|-2-----------4-------------------|-------------------------x-------|
    1 e + a 2 e + a 3 e + a 4 e + a   1 e + a 2 e + a 3 e + a 4 e + a
    F#m7        E/G#                  A     A/C#  D


[INTERLUDE 1]

eb|---------------------------------|---------------------0-----------|
Bb|-2-------------5---5-------------|-5-------------------------------|
Gb|-2-------x---x-4---2-----x---x-x-|-2-------x---x-2---2---2-4---x-x-|
Db|-2-------x---x-2---2-----x---x-x-|-2-------x---x-0---------2---x-x-|
Ab|-0-------x---x-----------x---x-x-|-4-------x---x---------------x-x-|
Eb|---------------------------------|-------------------------4-------|
    1 e + a 2 e + a 3 e + a 4 e + a   1 e + a 2 e + a 3 e + a 4 e + a
    A             E   A/E             A/C#          Dsus2     E/G#


[VERSE 1] only numbers and "+" get downstrokes (everything else is an upstroke)

eb|---------------------------------|---------------------0-----------|
Bb|-2-------------5---5-------------|-5-------------------------------|
Gb|-2-------x---x-4---2-----x---x-x-|-2-------x---x-2---2---2-4---x-x-|
Db|-2-------x---x-2---2-----x---x-x-|-2-------x---x-0---------2---x-x-|
Ab|-0-------x---x-----------x---x-x-|-4-------x---x---------------x-x-| x2
Eb|---------------------------------|-------------------------4-------|
    1 e + a 2 e + a 3 e + a 4 e + a   1 e + a 2 e + a 3 e + a 4 e + a
    A             E   A/E             A/C#          Dsus2     E/G#

eb|---------------------------------|---------------------------------|
Bb|-2-------------5---5-------------|-5-------------5---5-5-5-5-5-----|
Gb|-2-------x---x-4---2-----x---x-x-|-2-------x---x-2---2-2-2-4-4-x-x-|
Db|-2-------x---x-2---2-----x---x-x-|-2-------x---x-0---0-2-2-2-2-x-x-|
Ab|-0-------x---x-----------x---x-x-|-4-------x---x---------------x-x-|
Eb|---------------------------------|-------------------------4-4-----|
    1 e + a 2 e + a 3 e + a 4 e + a   1 e + a 2 e + a 3 e + a 4 e + a
    A             E   A/E             A/C#          Dsus2     E/G#

eb|---------------------------------|---------------------------------|
Bb|-2-------------5---5-------------|-5-------------5---5-5-5-5-5-5-5-|
Gb|-2-------x---x-4---2-----x---x-x-|-2---x-x-x---x-2---2-2-2-4-4-4-4-|
Db|-2-------x---x-2---2-----x---x-x-|-2---x-x-x---x-0---0-2-2-2-2-2-2-|
Ab|-0-------x---x-----------x---x-x-|-4---x-x-x---x-------------------|
Eb|---------------------------------|-------------------------4-4-4-4-|
    1 e + a 2 e + a 3 e + a 4 e + a   1 e + a 2 e + a 3 e + a 4 e + a
    A             E   A/E             A/C#          Dsus2     E/G#


[CHORUS 2]

Strumming (KX = chord X)
[FIRST] (no label)
K1          K2
D     U   U D     U   U D   D
1 e + a 2 e + a 3 e + a 4 e + a

[SECOND] labeled *
K1          K2
D     U   U D     U   U D U D U
1 e + a 2 e + a 3 e + a 4 e + a


Shapes
          EADGBe
   Asus2: x02200
Eadd4/G#: 422455
     F#m: 244222 (guitarist frets low E with his thumb)
      D5: xx023x
   Dsus2: xx0230
       A: x0222x

                     Asus2  Eadd4/G#
I don't want another pretty face
                  F#m       D5
I don't want just anyone to hold
                F#m           Eadd4/G#
I don't want my love to go to waste
       Asus2         Dsus2 *
I want you  and your beautiful soul
           A           Eadd4/G#
You're the one I wanna chase
           F#m         Dsus2 *
You're the one I wanna hold
                    F#m          Eadd4/G#
I won't let another minute go to waste
       Asus2        Dsus2 *
I want you and your beautiful soul


[INTERLUDE 2]

eb|---------------------------------|---------------------------------|
Bb|-2-------------5---5-------------|-5-------------5---5-------------|
Gb|-2-------x---x-4---2-----x---x-x-|-2-------x---x-2---2-x-x-4-4-x-x-|
Db|-2-------x---x-2---2-----x---x-x-|-2-------x---x-0---0-----2-2-x-x-|
Ab|-0-------x---x-----------x---x-x-|-4-------x---x---------------x-x-|
Eb|---------------------------------|-------------------------4-4-----|
    1 e + a 2 e + a 3 e + a 4 e + a   1 e + a 2 e + a 3 e + a 4 e + a
    A             E   A/E             A/C#          Dsus2     E/G#


[VERSE 2]

eb|---------5-5---5---------5-5-----|---------5-5-------------5-5-----|
Bb|-2-------------5---5-------------|-5-------------5---5-----5-5-----|
Gb|-2---x-x-2-2-x-4---2---x-2-2-x-x-|-2---x-x-2-2-x-2---2-x-x-4-4-x-x-|
Db|-2---x-x-----x-2---2---x-----x-x-|-2---x-x-----x-0---0-x-x-2-2-x-x-|
Ab|-0---x-x-----x---------x-----x-x-|-4---x-x-----x-------x-x-----x-x-| x3
Eb|---------------------------------|-------------------------4-4-----|
    1 e + a 2 e + a 3 e + a 4 e + a   1 e + a 2 e + a 3 e + a 4 e + a
    A             E   A/E             A/C#          Dsus2     E/G#

eb|---------5-5---5---------5-5-----|---------5-5---------------------|
Bb|-2-------------5---5-------------|-5-------------5---5-----5-5-----|
Gb|-2---x-x-2-2-x-4---2---x-2-2-x-x-|-2---x-x-2-2-x-2---2-2-2-4-4-x-x-|
Db|-2---x-x-----x-2---2---x-----x-x-|-2---x-x-----x-0---0-0-0-2-2-x-x-|
Ab|-0---x-x-----x---------x-----x-x-|-4---x-x-----x-0---0-0-0-----0-0-|
Eb|---------------------------------|-------------------------4-4-----|
    1 e + a 2 e + a 3 e + a 4 e + a   1 e + a 2 e + a 3 e + a 4 e + a
    A             E   A/E             A/C#          Dsus2     Eadd4/G#


[CHORUS 2]
                     Asus2  Eadd4/G#
I don't want another pretty face
                  F#m       Dsus2 *
I don't want just anyone to hold
                F#m           Eadd4/G#
I don't want my love to go to waste
       Asus2         Dsus2 *
I want you  and your beautiful soul
           A           Eadd4/G#
You're the one I wanna chase
           F#m         Dsus2 *
You're the one I wanna hold
                    F#m          Eadd4/G#
I won't let another minute go to waste
       Asus2        Dsus2 *
I want you and your beautiful soul


[BRIDGE] (highly muted. Watch for counting.)

eb|---------------------------------|---------------------------------|
Bb|---------------------------------|---------------------------------|
Gb|---------------------------------|-----------------------2---------|
Db|-----2h4-4-4-4-4-2h4-4-4---2---2-|-----2h4-4-4-4-4-2h4-4-----4~--2-|
Ab|---------------------------------|---------------------------------|
Eb|-2-2-2---2-2-2-2-2---2-2-2-2-2-2-|-2-2-2---2-2-2-2-2---2-2-2-2-2-2-|
    1 e + a 2 e + a 3 e + a 4 e + a   1 e + a 2 e + a 3 e + a 4 e + a
    F#m7

eb|---------------------------------|-------------0-----0---------------|
Bb|---------------------------------|-------------3-----3-3-3-3-3-x-x-x-|
Gb|---------------------------------|-------------2-----2-2-2-2-2-x-x-x-|
Db|-----2h4-4-4-4-4-2h4-4-4---2---2-|-----2h4-4-x-0-----0-0-0-0-0-x-x-x-|
Ab|---------------------------2---2-|---------4-x-----------------------|
Eb|-2-2-2---2-2-2-2-2---2-2-2-------|-2-2-2---2-------------------------|
    1 e + a 2 e + a 3 e + a 4 e + a   1 e + a 2 e + a 3 e + a   4 e + a
                                                  Dsus2

(singing)

eb|---------------------------------|---------------------------------|
Bb|---------------------------------|---------------------------------|
Gb|---------x-----------------------|---------x-------------2---------|
Db|---------x-4~----2-2-2-4---2---2-|---------x-4~--------------4~----|
Ab|---------x-----------------2---2-|---------x-----------------------|
Eb|-2---2-2-----2-2-----------------|-2-2-2-2-----2-2-2-2-2---2---2-2-|
    1 e + a 2 e + a 3 e + a 4 e + a   1 e + a 2 e + a 3 e + a 4 e + a
    F#m7

eb|---------------------------------|-------------0-------------0-0-----|
Bb|---------------------------------|-------------3-----3-3-3-3-3-3-x-x-|
Gb|---------------------------------|-------------2-----2-2-2-2-2-2-x-x-|
Db|-----2-----4-----2-----4---2-----|-------------0-----0-0-0-0-0-0-x-x-|
Ab|---------------------------2-----|-------4---4-----------------------|
Eb|-2-2---2-2---2-2---2-2---2---2-2-|-2---2-----------------------------|
    1 e + a 2 e + a 3 e + a 4 e + a   1 e + a 2 e + a 3 e + a   4 e + a
                                                  Dsus2

eb|---------------------------------|---------------------------------|
Bb|---------------------------------|---------------------------------|
Gb|---------x-------x-x-x-----------|---------x-------------2---------|
Db|---------x-4~----x-x-x-2---4-----|---------x-4~--------------4~----|
Ab|---------x-------x-x-x-----------|---------x-----------------------|
Eb|-2---2-2-----2-2-------------2-2-|-2-2-2-2-----2-2-2-2-2---2-----2-|
    1 e + a 2 e + a 3 e + a 4 e + a   1 e + a 2 e + a 3 e + a 4 e + a
    F#m7

eb|---------------------------------|-------------0-----0-0-0-0-0-0-0-|
Bb|---------------------------------|-------------3-----3-3-3-3-3-3-3-|
Gb|---------------------------------|-------------2-----2-2-2-2-2-2-2-|
Db|-----2-----4-----2-----4---2-2-2-|-------------0-----0-0-0-0-0-0-0-|
Ab|-----2-----4-----2-----4---2-2-2-|-------4---4---------------------|
Eb|-2-2---2-2---2-2---2-2---2-2-2-2-|-2---2---------------------------|
    1 e + a 2 e + a 3 e + a 4 e + a   1 e + a 2 e + a 3 e + a 4 e + a
                                                  Dsus2

[FINAL CHORUS 1]

eb|---------------------------------|---------------------------------|
Bb|-------5-----5-------------------|-------5-----3-------------------|
Gb|-------------4-------------------|-------------2-------------------|
Db|-------------2-------------------|-------------0-------------------|
Ab|-0-------------------------------|---------------------------------|
Eb|-------------4-------------------|-2-------------------------------|
    1 e + a 2 e + a 3 e + a 4 e + a   1 e + a 2 e + a 3 e + a 4 e + a
    A           E/G#                  F#m7        D6

eb|-------------------------x-------|---------------------------------|
Bb|-------5-----------------x-------|-------------------2-2-2---------|
Gb|-----2-------4-----------x---x-x-|-----2-----2-------2-2-2---------|
Db|-------------2-----------x---x-x-|---2-----2---------2-2-2---------|
Ab|-------------------------x---x-x-|-0-----4-----5-----5-5-5-5-4-2-0-|
Eb|-2-----------4-----------x-------|---------------------------------|
    1 e + a 2 e + a 3 e + a 4 e + a   1 e + a 2 e + a 3 e + a 4 e + a
    F#m7        E/G#                  A     A/C#  Dmaj9

eb|-------------------------x-------|-------------------------x-------|
Bb|-------2-----------------x-------|-------------3-----------x-------|
Gb|-2---x-2---x-4-----------x---x-x-|-------------2-----------x---x-x-|
Db|-2---x-2---x-2-----------x---x-x-|-------4-----0-----------x---x-x-|
Ab|-0---x-0---x-2-----------x---x-x-|-4-----4---4-------------x---x-x-|
Eb|-------------4-----------x-------|-2-----2-----------------x-------|
    1 e + a 2 e + a 3 e + a 4 e + a   1 e + a 2 e + a 3 e + a 4 e + a
    A           E/G#                  F#m7        D6

eb|-------------------------x-------|-0-----0---0-0-----0-0-0-0-0-0-0-0-|
Bb|-------2-----------------x-------|-0-----0---0-3-----3-3-3-3-3-3-3-3-|
Gb|-------2---x-4-x-x-x-x-x-x-x-x-x-|-2---2-2---2-2-----2-2-2-2-2-2-2-2-|
Db|-------4---x-2-x-x-x-x-x-x-x-x-x-|-2---2-2-----0-----0-0-0-0-0-0-0-0-|
Ab|-----------x---x-x-x-x-x-x-x-x-x-|-0---0-0---------------------------|
Eb|-2---2-------4-----------x-------|-----------------------------------|
    1 e + a 2 e + a 3 e + a 4 e + a   1 e + a 2 e + a 3 e + a   4 e + a
    F#m7        E/G#                  Asus2       Dsus2


[FINAL CHORUS 2]

Strumming (KX = chord X)
[FIRST] (no label)
K1          K2
D     U D U D       D U D   D U
1 e + a 2 e + a 3 e + a 4 e + a

[SECOND] labeled *
K1          K2
D     U D U D     U   U D U D U
1 e + a 2 e + a 3 e + a 4 e + a

[THIRD] labeled **
K1          K2
D     U D U D     U     D U D
1 e + a 2 e + a 3 e + a 4 e + a

                     Asus2  Eadd4/G#
I don't want another pretty face
                  F#m       Dsus2 *
I don't want just anyone to hold
                F#m           Eadd4/G# **
I don't want my love to go to waste
       Asus2         Dsus2 *
I want you  and your beautiful soul


[INTERLUDE 3]
Strumming
K1          K2
D     U D U D     U D   D U D U
1 e + a 2 e + a 3 e + a 4 e + a

K1          K2
D     U D U D     U   U D U D U
1 e + a 2 e + a 3 e + a 4 e + a

K1          K2
D     U D U D     U D U D U D U x2
1 e + a 2 e + a 3 e + a 4 e + a

Asus2 Eadd4/G#
F#m     Dsus2
F#m   Eadd4/G#
Asus2   Dsus2

[OUTRO]

eb|---------------------------------|---------------0---0-------------|
Bb|-2-------------5---5-------------|-5-------------3---3-------------|
Gb|-2-------x---x-4---2-----x---x-x-|-2-------x---x-2---2-x-x-4-4-x-x-|
Db|-2-------x---x-2---2-----x---x-x-|-2-------x---x-0---0-x-x-2-2-x-x-|
Ab|-0-------x---x-----------x---x-x-|-4-------x---x-------x-x-----x-x-|
Eb|---------------------------------|-------------------------4-4-----|
    1 e + a 2 e + a 3 e + a 4 e + a   1 e + a 2 e + a 3 e + a 4 e + a
    A             E   A/E             A/C#          Dsus2     E/G#

eb|---------------------------------|---------------------------------|
Bb|-2-----------------2-------------|---------------3^----------------|
Gb|-2-------x---x-4---2-----x---x-x-|-----2-----2---2|----------------|
Db|-2-------x---x-2---2-----x---x-x-|---2-----2-----0|----------------|
Ab|-0-------x---x-----0-----x---x-x-|-0-----4-------------------------|
Eb|---------------4-----------------|---------------------------------|
    1 e + a 2 e + a 3 e + a 4 e + a   1 e + a 2 e + a 3 e + a 4 e + a
    A            E/G# A               A     A/C#    D


KEY
*****************

| x   Dead note
| h   Hammer-on
| ~   Vibrato

| ^
| |   downstroke
| |

            
            
Suggest correction
Creating personal tab
Creating personal tab
You can edit any tab online and save it as your Personal.

You can edit, replace or remove any tab part or add personal notes – all changes will be seen only by you.

Personal tabs can be accessed anytime from any device, even offline.
Learn more »
Give kudos to tab author, rate the tab!
1 2 3 4 5
comments
print report bad tab
guest
You may want to rate the tab now too:
select rating
Wanna post a correction for this tab? Suggest correction