Oops, an error
Loading. Please wait.

I Found My Way tab

94 views 3 this week
no commentswrite comment
1 2 3 4 5
3 more votes to show rating
add to favorites
×
Save as Personal and add changes to this tab that will be seen only by you. Learn more ›
×
You can save this tab as Personal to edit and correct it or add notes. All changes will be seen only by you. Learn more »
launch autoscroll
font size
0
reset
how to read this tab
guitar tuner
edit
Autoscroll
slow
fast
+/-
esc
set tempo
stop
[Chords]
Gsus2      30003x
Csus2      x3003x
Em7        x22033
G          320033
Cadd9      x32033
G5         3x0033    

[Intro]
e|-----------------------------------------------|
B|------------3---------------3------------------|
G|--0h2---------------0---------------0----------|(x4)
D|--------------------------------------------0--|
A|-----------------------------------------------|
E|--3-----3-------3---3---3-------3---3---3------|

e|-----------------------------------------------|
B|------------3---------------3------------------|
G|--0h2---------------0---------------0----------|(x4)
D|--------------------------------------------0--|
A|--3-----3-------3---3---3-------3---3---3------|
E|-----------------------------------------------|

[Verse]
You called   me      out     from         the       other            side,                   You
e|-----------------------------------------------|-----------------------------------------------|
B|------------3---------------3------------------|------------3---------------3------------------|
G|--0h2---------------0---------------0----------|--0h2---------------0---------------0----------|
D|--------------------------------------------0--|--------------------------------------------0--|
A|-----------------------------------------------|-----------------------------------------------|
E|--3-----3-------3---3---3-------3---3---3------|--3-----3-------3---3---3-------3---3---3------|

    held      my     hand,                You      watched    me     fly,       Oooooooooooooooh           
e|-----------------------------------------------|-----------------------------------------------|
B|------------3---------------3------------------|------------3---------------3------------------|
G|--0h2---------------0---------------0----------|--0h2---------------0---------------0----------|
D|--------------------------------------------0--|--------------------------------------------0--|
A|-----------------------------------------------|-----------------------------------------------|
E|--3-----3-------3---3---3-------3---3---3------|--3-----3-------3---3---3-------3---3---3------|

    Ooooooooooooh     Ooooooooooooooooooooooooohhh
e|-----------------------------------------------|-----------------------------------------------|
B|------------3---------------3------------------|------------3---------------3------------------|
G|--0h2---------------0---------------0----------|--0h2---------------0---------------0----------|
D|--------------------------------------------0--|--------------------------------------------0--|
A|--3-----3-------3---3---3-------3---3---3------|--3-----3-------3---3---3-------3---3---3------|
E|-----------------------------------------------|-----------------------------------------------|

    Ooooooooooooh     Ooooooooooooooooooooooooohhh
e|-----------------------------------------------|-----------------------------------------------|
B|------------3---------------3------------------|------------3---------------3------------------|
G|--0h2---------------0---------------0----------|--0h2---------------0---------------0----------|
D|--------------------------------------------0--|--------------------------------------------0--|
A|--3-----3-------3---3---3-------3---3---3------|--3-----3-------3---3---3-------3---3---3------|
E|-----------------------------------------------|-----------------------------------------------|

  A  golden         voice                          said       to      me,
e|-----------------------------------------------|-----------------------------------------------|
B|------------3---------------3------------------|------------3---------------3------------------|
G|--0h2---------------0---------------0----------|--0h2---------------0---------------0----------|
D|--------------------------------------------0--|--------------------------------------------0--|
A|-----------------------------------------------|-----------------------------------------------|
E|--3-----3-------3---3---3-------3---3---3------|--3-----3-------3---3---3-------3---3---3------|

    Try       to    stand                 don't     try       to     flee,      Oooooooooooooooh
e|-----------------------------------------------|-----------------------------------------------|
B|------------3---------------3------------------|------------3---------------3------------------|
G|--0h2---------------0---------------0----------|--0h2---------------0---------------0----------|
D|--------------------------------------------0--|--------------------------------------------0--|
A|-----------------------------------------------|-----------------------------------------------|
E|--3-----3-------3---3---3-------3---3---3------|--3-----3-------3---3---3-------3---3---3------|

    Ooooooooooooh     Ooooooooooooooooooooooooohhh
e|-----------------------------------------------|-----------------------------------------------|
B|------------3---------------3------------------|------------3---------------3------------------|
G|--0h2---------------0---------------0----------|--0h2---------------0---------------0----------|
D|--------------------------------------------0--|--------------------------------------------0--|
A|--3-----3-------3---3---3-------3---3---3------|--3-----3-------3---3---3-------3---3---3------|
E|-----------------------------------------------|-----------------------------------------------|

    Ooooooooooooh     Ooooooooooooooooooooooooohhh                   But     it's    okay,
e|-----------------------------------------------|-----------------------------------------------|
B|------------3---------------3------------------|------------3---------------3------------------|
G|--0h2---------------0---------------0----------|--0h2---------------0---------------0----------|
D|--------------------------------------------0--|-----------------------------------------------|
A|--3-----3-------3---3---3-------3---3---3------|--3-----3-------3---3---3-------3---3---3------|
E|-----------------------------------------------|-----------------------------------------------|

                                                         I'll    wait    for           another
e|----------0----------------------------------|-------------------------------------------------|
B|--------------------------3------------------|----------3---------------3----------------------|
G|--0---------------0---------------0----------|--0---------------0---------------0-------0------|
D|------------------------------------------0--|-------------------------------------------------|
A|--2---2-------2---2---2-------2---2---2------|-------------------------------------------------|
E|---------------------------------------------|--3---3-------3---3---3-------3---3---3----------|

           day
e|------------------------------------------------|
B|----------3---------------3---------------------|
G|--0---------------0--------------0-----------0--|
D|------0---------------0------------------0------|
A|--3-----------3---3-----------3--3---3-------3--|
E|------------------------------------------------|

[Verse]
     Gsus2
The  Moon  shined  through  the  trees,

Trees  that  grew  without  their  leaves,
Csus2
Ooooh  Ooooh,
     Gsus2
You  said  you  were  fine  you  were  all  okay,

I  said  goodbye  and  went  my  way,
Csus2
Ooooh  Ooooh,
         Em7      G
But it's okay,
          Cadd9
I found my way

[Outro]
G5
Oooooohh  Oooooohh,
Cadd9
Oooooohh  Oooooohh,
(x2)

G5
I  shout  it  out,
G5                               Cadd9
I  found  my  way,  I  found  my  way,
      Cadd9
I  found  my  way,
              Em7     G     Cadd9
I  found  my  way,

G5
Oooooohh  Oooooohh,
Cadd9
Oooooohh  Oooooohh,
(x4)

************************************

| x   Dead note
| h   Hammer-on

************************************
Suggest correction
Creating personal tab
Creating personal tab
You can edit any tab online and save it as your Personal.

You can edit, replace or remove any tab part or add personal notes – all changes will be seen only by you.

Personal tabs can be accessed anytime from any device, even offline.
Learn more »
Give kudos to tab author, rate the tab!
1 2 3 4 5
comments
print report bad tab
guest
You may want to rate the tab now too:
select rating
Wanna post a correction for this tab? Suggest correction